Song name
# A B C D E F G H I J K L M N O P Q R S T U V W X Y Z

The Pigeon Detectives - Cant Control Myself tab

Tabbed by:Cortezio
Email:curzio@mclink.it
Tuning:Standard

In this tab I've only tabbed out the rythm guitar, but am working on the lead
Ok, so basically there are three parts to this song:

Verse
e|--------------------------------------------------------------------------|
B|--------------------------------------------------------------------------|
G|--------------------------------------------------------------------------|
D|---5/7-5--5/7-5--5/7-5-7--5/7-5-------------------------------------------|
A|---5/7-5--5/7-5--5/7-5-7--5/7-5-------------------------------------------|
E|---3/5-3--3/5-3--3/5-3-5--3/5-3-------------------------------------------|

Pre-Chorus
e|-------------------------------------------------------------------------|
B|-------------------------------------------------------------------------|
G|---x-7-x-7-x-7-x-7-------------------------------------------------------|
D|---x-7-x-7-x-7-x-7-x-7-x-7-x-7-x-7---------------------------------------|
A|---x-5-x-5-x-5-x-5-x-7-x-7-x-7-x-7---------------------------------------|
E|-------------------x-5-x-5-x-5-x-5---------------------------------------|

Chorus
e|-------------------------------------------------------------------------|
B|-------------------------------------------------------------------------|
G|-55555555----------77777777-777-6----------------------------------------|
D|-55555555-55555555-77777777-777-6----------------------------------------|
A|-33333333-55555555-55555555-555-4----------------------------------------|
E|----------33333333-------------------------------------------------------|

Thats it!
Any Modifications/improvaments are welcome...



Coretzio
Tap to rate this tab
# A B C D E F G H I J K L M N O P Q R S T U V W X Y Z