The Pigeon Detectives - Done In Secret tab

Intro:
 

e|---4---0---2---0---4---0---2---0---4------|
B|--------------------------------------2---|
G|------------------------------------------|     X2
D|------------------------------------------|     
A|------------------------------------------|
E|------------------------------------------|


e|------------------------------------------|
B|---/9-9--7-7--5-5--7------7-7--5-5--7-7---|
G|---------------------6-6------------------|     X2
D|------------------------------------------|
A|------------------------------------------|
E|------------------------------------------|
Tap to rate this tab
 
# A B C D E F G H I J K L M N O P Q R S T U V W X Y Z