Song name
# A B C D E F G H I J K L M N O P Q R S T U V W X Y Z

The Pigott Brothers - Alien Like You tab

CAPO ON FRET 8
STANDARD TUNING

INTRO:

E|----------------------------------------------------------|
A|------------------------------------1---------------------|
D|---------0-0h2~-p0----------------0-----------------------|
G|---0h2----2-----------------2--0h2------0h2-2~------------|
B|---3---------------------------0-------0h3----------------|
E|----------------------------------------------------------|

E|----------------------------------------------------------|
A|----3------------------0h1--------------------------------|
D|-------0--------------0-----------------------------------|
G|------2-2p0----------0h2----------------------------------|
B|-----------------3--3-------------------------------------|
E|----------------------------------------------------------|

			  C
E|------------------------0----------------------------------|
A|------1-------0h1-------1----------------------------------|
D|---0h2-2-----0----------0----------------------------------|   STRUM C CHORD
G|--------2---0h2---------2----------------------------------|
B|-----------3------------3----------------------------------|
E|-----------------------------------------------------------|

			 Em7
E|-------------3----------3-----------------------------------|
A|------0------3----------3-----------------------------------|
D|---0h2-2----------------0-----------------------------------|   STRUM Em7 CHORD
G|--------2----0h2--------2-----------------------------------|
B|-------------0h2--------2-----------------------------------|
E|------------------------------------------------------------|


Then repeat the following chords throughout the song:


    C    Em7  Am   F

E|--0----3----0----1------|
A|--1----3----1----1------|
D|--0----0----2----2------|
G|--2----2----2----3------|
B|--3----2----0----3------|
E|-----------------1------|
Tap to rate this tab
 
# A B C D E F G H I J K L M N O P Q R S T U V W X Y Z