Guitaretab - guitar tabs
Song name
# A B C D E F G H I J K L M N O P Q R S T U V W X Y Z

The Pink Spiders - Easy Way Out tab

-------------------------------------------------------------------------------
			     Easy Way Out
Tabbed by:danielfisher93
Email:danielfisher93@aol.com

Tuning:

e|-------------------------------------------|
B|-223232/556565-----------------------------|
G|-222222/555555101010101097----x2-----------|
D|--------------101010101097-----------------|
A|---------------8-8-8-8-975-----------------|
E|-------------------------------------------|

e|-------------------------------------------|
B|-------------------------------------------|
G|-----101010x555x999x----999x55557-7--------|
D|-777x101010x555x999x----999x55557-7----x2--|
A|-777x-8-8-8x333x777x555x777x33335-5--------|
E|-555x---------------333x-------------------|
verse
e|--xx55xx55xx55xx5--------------------------|
B|--xx55xx55xx55xx5--------------------------|
G|--xx55xx55xx55xx5--------------------------|
D|-------------------------------------------|
A|-------------------------------------------|
E|-------------------------------------------|
pre-chorus
e|-------------------------------------------|
B|-------------------------------------------|
G|-101010101097------------------------------|
D|-101010101097------------------------------|
A|--8-8-8-8-875------------------------------|
E|-------------------------------------------|
[ Tab from: http://www.guitaretab.com/t/the-pink-spiders/153181.html ]
e|-------------------------------------------|
B|-------------------------------------------|
G|----------101010101097---------------------|
D|-7---10---101010101097---------------------|
A|-7x8-10x8--8-8-8-8-875---------------------|
E|-5----8------------------------------------|
solo
e|-0------------------------------------------|
B|-0------------------------------------------|
G|-1---------5----7----8^8^8^8^8^7------------|
D|-2----------7575-7575-----------------------|
A|-2------------------------------------------|
E|-0------------------------------------------|
chorus-2x
outro
e|--------------------------------------------|
B|--------------------------------------------|
G|--10101010109777777771010101010977777777----|
D|--10101010109777777771010101010977777777----|
A|---8-8-8-8-8755555555-8-8-8-8-8755555555----|
E|--------------------------------------------|

e|--------------------------------------------|
B|--------------------------------------------|
G|--101010101097--------101010101097----------|
D|--10101010109777777777101010101097----------|
A|---8-8-8-8-87577777777-8-8-8-8-875----------|
E|--------------55555555----------------------|


| /  slide up
| \  slide down
| h  hammer-on
| p  pull-off
| ~  vibrato
| +  harmonic
| x  Mute note
===============================================================================
Related for Easy Way Out tab
Easy Way Out chords by The Pink Spiders