Song name
# A B C D E F G H I J K L M N O P Q R S T U V W X Y Z

The Pink Spiders - Stereo Speakers tab

Stereo Speakers
The Pink Spiders
Tabbed by Zach Gibson

I heard of this band from a friend of mine and i listen to a couple of
songs by them hand i just had to learn them, but i didn't see a tab for
this song i decided to make one of my own. Its not a very hard song to
tab either, so here is my tab and i hope it works out for you.

Any questions ask me through this site but i would rather you e-mail me at
zachgibson22@gmail.com

Standard Tuning

(The song could actually probably be played a half a step down and it makes
sense at some parts but I hate tuning all the time(don't we all) so I made
it in standard tuning)

Chords Used:

    E-A-D-G-B-e----------------------------|               
                              E-A-D-G-B-e
A  -x-0-2-2-x-x-          E  -0-2-2-x-x-x--|

Bb -x-1-3-3-x-x-          D  -x-5-7-7-x-x- AND  -x-x-12-11-10-10
                                               (I just use the 10s)
C  -x-3-5-5-x-x-          F  -1-3-3-x-x-x-

C# -x-4-6-6-x-x-          G  -3-5-5-x-x-x-

Yeah the solo its here too...YAY!

Intro

    D     F         C     Bb
e|--------------------------------|
B|--------------------------------|
G|--7--7------------5--5--3--3----| Play this 2 times
D|--7--7--3--3------5--5--3--3----| Gtr 1 only
A|--5--5--3--3------3--3--1--1----|
E|--------1--1--------------------|


    D     F         C     Bb
e|--------------------------------|
B|--------------------------------|
G|--7--7------------5--5--3--3----|
D|--7--7--3--3------5--5--3--3----|
A|--5--5--3--3------3--3--1--1----|
E|--------1--1--------------------|
 |                                |
 | D                              |
e|-10--10--10--10--10--10--10--10-|<<<
B|-10--10--10--10--10--10--10--10-|<<
Tap to rate this tab
# A B C D E F G H I J K L M N O P Q R S T U V W X Y Z