Song name
# A B C D E F G H I J K L M N O P Q R S T U V W X Y Z

The Pink Spiders - Trust No One chords

Highlighted       Show chord diagrams
Lyrics from Icelebz.com

=ASJ=

Notes: xx = chunk (or rest)
During the intro and chorus, feel free to play chords whose roots are the 
tab written below if you're playing alone but still want a strong rock sound.  

::Intro: 
e|-----------xx---------xx---------x---------------|
B|-----------xx---------xx---------x---------------|
G|-----------xx---------xx---------x---------------|
D|-----------xx---------xx---------x---------------|
A|-7-7-7-----xx-5-5-----xx---------x-5-5--5--5-6---|
E|-------6-5-xx-----5-3-xx-0-0-3-5-x-----7--7------|

      E           
(Yeah yeah, yeah yeah, yeah yeah)

::Verse Progression: E - C#m - D - B - E - C#m - A - B - C - D
::Verse with Lyrics:

 E                      C#m              D                       B
There's a foul-mouthed girl with no name 'Cause diet cokeheads, they're all 
         E                       C#m                 A                B
the same Behind the mirror, it's all fair game, With all these demons in your  
           C                  D
head, And all these strangers in your bed


::Chorus:
e|--------------xx---------xx---------x------------------|
B|--------------xx---------xx---------x------------------|
G|--------------xx---------xx---------x------------------|
D|--------------xx---------xx---------x------------------|
A|-10-10-10-----xx-8-8-----xx---------x-8-8----8----8-9--|
E|----------9-8-xx-----8-6-xx-3-3-6-8-x-----10---10------|


::Verse::

::Chorus:: 

                     [played in passing]
::Bridge Progression: E - [E - Eb - D] - C#m - C - E - A - C#m - C    

 E  [E - Eb   D]   C#m                              C
               Tongue-tie me to the train tracks, train tracks baby,
E                        A                   C#m
I just wanna get back,  get back steady Tongue-tie me to the train tracks, 
C                        E
Every-nighter ridin' the rail              x2


::Solo:  Play the intro riff

::Final Chorus:  Play intro riff twice then chorus riff

::Outro: G
Tap to rate this tab
# A B C D E F G H I J K L M N O P Q R S T U V W X Y Z