Guitaretab - guitar tabs
Song name
# A B C D E F G H I J K L M N O P Q R S T U V W X Y Z

The Pink Spiders - Talk Hard tab

-------------------------------------------------------------------------------
			     Talk Hard - The Pink Spiders
-------------------------------------------------------------------------------
Tabbed by:Steven Gladman
Email: stevie.gladman@ntlworld.com

Tuning:E A D G B E

Intro
e|-----------------------------------------------------------------------------------------|
B|-----------------------------------------------------------------------------------------|
G|----------------7---------------------------------7--------------------------------------|
D|--9---7--9--7---7--7--5--7/9--2--7--9---7--5--7---7---7--5--7-9-----2--7--5--7-9--2--7---|
A|--9---7--9--7---5--7--5--7/9--2--7--9---7--5--7---5---7--5--7-9-----2--7--5--7-9--2--7---|
E|--7---5--7--5------5--3--5/7--0--5--7---5--7--5-------5--3--5/7-----0--5--3--5/7--0--5---|



Verse
B D E A B
B D E A B F#  A
B D E A B
B D E A B F# A

Chorus
e|------------------------------------------------------------------------------|
B|------------------------------------------------------------------------------|
G|----------------7---------------------------------7---------------------------|
D|--9---7--9--7---7--7--5--7/9--2--7--9---7--5--7---7---7--5--7-9-----2--7--9---|
A|--9---7--9--7---5--7--5--7/9--2--7--9---7--5--7---5---7--5--7-9-----2--7--9---|
E|--7---5--7--5------5--3--5/7--0--5--7---5--7--5-------5--3--5/7-----0--5--7---|


Verse
B D E A B
B D E A B 
B D E A B
B D E A B F# A

[ Tab from: http://www.guitaretab.com/t/the-pink-spiders/62619.html ]
Chorus
e|------------------------------------------------------------------------------|
B|------------------------------------------------------------------------------|
G|----------------7---------------------------------7---------------------------|
D|--9---7--9--7---7--7--5--7/9--2--7--9---7--5--7---7---7--5--7-9-----2--7--9---|
A|--9---7--9--7---5--7--5--7/9--2--7--9---7--5--7---5---7--5--7-9-----2--7--9---|
E|--7---5--7--5------5--3--5/7--0--5--7---5--7--5-------5--3--5/7-----0--5--7---|

Bridge
D E F# E X4

Chorus
e|------------------------------------------------------------------------------|
B|------------------------------------------------------------------------------|
G|----------------7---------------------------------7---------------------------|
D|--9---7--9--7---7--7--5--7/9--2--7--9---7--5--7---7---7--5--7-9-----2--7--9---|
A|--9---7--9--7---5--7--5--7/9--2--7--9---7--5--7---5---7--5--7-9-----2--7--9---|
E|--7---5--7--5------5--3--5/7--0--5--7---5--7--5-------5--3--5/7-----0--5--7---|

Chorus
e|--------------------------------------------------------------------------|
B|--------------------------------------------------------------------------|
G|------------7---------------------------------7---------------------------|
D|--7--9--7---7--7--5--7/9--2--7--9---7--5--7---7---7--5--7-9-----2--7--5---|
A|--7--9--7---5--7--5--7/9--2--7--9---7--5--7---5---7--5--7-9-----2--7--5---|
E|--5--7--5------5--3--5/7--0--5--7---5--7--5-------5--3--5/7-----0--5--3---|


e|-----------|
B|-----------|
G|-----------|
D|--7--8--9--|
A|--7--8--9--|
E|--5--6--7--|




| /  slide up
| \  slide down
| h  hammer-on
| p  pull-off
| ~  vibrato
| +  harmonic
| x  Mute note
===============================================================================
Related for Talk Hard tab
Advertisement will be closed in 10 seconds