Song name
# A B C D E F G H I J K L M N O P Q R S T U V W X Y Z

The Pink Spiders - Hollywood Fix tab

e|----------------------------------------------7--------------------------|
b|-9-7-9-9--7-9-9--9-9-7---9-7-9-9--7-9-9--9-9------9-7-9-9--7-9-9---------|
g|-----------------------9-----------------------9-------------------------|
d|-------------------------------------------------------------------------|
a|-------------------------------------------------------------------------|
E|-------------------------------------------------------------------------|

e|---------7------7-7-7----------------------------------------------------|
b|--9-9-9b---9-7--------10-10-10--9-9-9--7-7-7-----------------------------|
g|-------------------------------------------------------------------------|
d|-------------------------------------------------------------------------|
a|-------------------------------------------------------------------------|
E|-------------------------------------------------------------------------|


e|----------------------------------------------------------------9--------|
b|-12-10-12-12-12--10-12-12-12-11-10--12-10-12-12-12--10-12-12-12---10-----|
g|-------------------------------------------------------------------------|
d|-------------------------------------------------------------------------|
a|-------------------------------------------------------------------------|
E|-------------------------------------------------------------------------|

e|------------------------------11-----------------------------------------|
b|-12-10-12-12-12--10-12-12-12b----12-10--12-12-12--10-10-10--9-9-9--7-7-7-|
g|-------------------------------------------------------------------------|
d|-------------------------------------------------------------------------|
a|-------------------------------------------------------------------------|
E|-------------------------------------------------------------------------|

e|-0---|
b|-----|
g|-----|
d|-----|
a|-----|
E|-----|
Tap to rate this tab
 
# A B C D E F G H I J K L M N O P Q R S T U V W X Y Z