Song name
# A B C D E F G H I J K L M N O P Q R S T U V W X Y Z

The Pink Spiders - Little Razorblade tab

          iNTRO
E|-----------------------------------------------------------------|
B|---------4-4-5-5---------4-4-5-5---------4-4-5-5-7-7-5-5-4-4-5---|
G|-4-4-6-6---------4-4-6-6---------4-4-6-6-------------------------|    X2
D|-----------------------------------------------------------------|
A|-----------------------------------------------------------------|
D|-----------------------------------------------------------------|


          "hEY hEY lITTLE rAZORBLADE..."
E|-----------------------------------------------------------------|
B|-----------------------------------------------------------------|
G|-9-9-9-9-9-9-9-9-----------------6-6-6-6-6-6-6-6-4-4-4-4-4-4-4-4-|
D|-9-9-9-9-9-9-9-9-7-7-7-7-7-7-7-7-6-6-6-6-6-6-6-6-4-4-4-4-4-4-4-4-|     X2
A|-7-7-7-7-7-7-7-7-7-7-7-7-7-7-7-7-4-4-4-4-4-4-4-4-2-2-2-2-2-2-2-2-|
D|-----------------7-7-7-7-7-7-7-7---------------------------------|


          "i gOT tHE kEY sO lET'S pUT iT iN dRIVE..."
E|-------------------------------|
B|-------------------------------|
G|-6--------------5--------------|
D|-7--------------7--------------|
A|-7--------------7--------------|
D|-------------------------------|



E|-----------------------------------------------------------------|
B|---------4-4-5-5---------4-4-5-5---------4-4-5-5-7-7-5-5-4-4-5---|
G|-4-4-6-6---------4-4-6-6---------4-4-6-6-------------------------|
D|-----------------------------------------------------------------|
A|-----------------------------------------------------------------|
D|-----------------------------------------------------------------|



          "hEY hEY lITTLE rAZORBLADE..."
E|-----------------------------------------------------------------|
B|-----------------------------------------------------------------|
G|-9-9-9-9-9-9-9-9-----------------6-6-6-6-6-6-6-6-4-4-4-4-4-4-4-4-|
D|-9-9-9-9-9-9-9-9-7-7-7-7-7-7-7-7-6-6-6-6-6-6-6-6-4-4-4-4-4-4-4-4-|     X2
A|-7-7-7-7-7-7-7-7-7-7-7-7-7-7-7-7-4-4-4-4-4-4-4-4-2-2-2-2-2-2-2-2-|
D|-----------------7-7-7-7-7-7-7-7---------------------------------|

I'm gonna edit this later....because i'm too lazy to finish it.
Tap to rate this tab
 
# A B C D E F G H I J K L M N O P Q R S T U V W X Y Z