Song name
# A B C D E F G H I J K L M N O P Q R S T U V W X Y Z

The Pink Spiders - Modern Swinger tab

[Modern Swinger by The Pink Spiders]

(Note:)
{{ = pick slide
xx = palm mute
~~ = vibrato/fade/ring

{INTRO}
    1       2       3       4
e|----------------------------------|
B|----------------------------------|
G|--1-1---------1-------------------|
D|------2-2-----------444-4-4-2-1-2-|
A|----------4-4---------------------|
E|----------------------------------|

    1       2       3       4
e|----------------------------------|
B|----------------------------------|
G|--------------------111-1-1-2-1---|
D|--4-4-1-1-----4-----------------4-|
A|----------2-2---------------------|
E|----------------------------------|

    1       2       3       4
e|----------------------------------|
B|----------------------------------|
G|--1-1---------1-------------------|
D|------2-2-----------444-4-4-2-1-2-|
A|----------4-4---------------------|
E|----------------------------------|

    1       2       3       4
e|----------------------------------|
B|----------------------------------|
G|--------------------4-4-4-5-5-5-5-|
D|--4-4-1-1-----4-----6-6-6-6-6-6-6-|
A|----------2-2-------6-6-6-6-6-6-6-|
E|--------------------4-4-4-4-4-4-4-|

{VERSE 1}
    1       2       3       4
e|----------------------------------|
B|--5-5-------------9-9-------------|
G|--6-6-------------9-9-----8-8-----|
D|--6-6-------------9-9-----9-9-----|
A|--4-4-------------7-7-----9-9-----|
E|--4-4-x-x---x-x-x-7-7-x-x-7-7-x-x-|

    1       2       3       4
e|----------------------------------|
B|----------------------------------|
G|--4-4-------------8-8-----5-5-----|
D|--6-6-------------9-9-----6-6-----|
A|--6-6-------------9-9-----6-6-----|
E|--4-4-x-x---x-x-x-7-7-x-x-4-4-x-x-|

    1       2       3       4
e|----------------------------------|
B|--5-5-------------9-9-------------|
G|--6-6-------------9-9-----8-8-----|
D|--6-6-------------9-9-----9-9-----|
A|--4-4-------------7-7-----9-9-----|
E|--4-4-x-x---x-x-x-7-7-x-x-7-7-x-x-|

    1       2       3       4
e|----------------------------------|
B|----------------------------------|
G|--4-4-------------8-8-----4-4-----|
D|--6-6-------------9-9-----6-6-----|
A|--6-6-------------9-9-----6-6-----|
E|--4-4-x-x---x-x-x-7-7-x-x-4-4-x-x-|

{PRE-CHORUS}
    1       2       3       4
e|----------------------------------|
B|------------------9-9-9-9-9-9-9---|
G|--6-6-6-6-6-6-6---9-9-9-9-9-9-9---|
D|--7-7-7-7-7-7-7---9-9-9-9-9-9-9---|
A|--7-7-7-7-7-7-7---7-7-7-7-7-7-7---|
E|--5-5-5-5-5-5-5-x-7-7-7-7-7-7-7-x-|

    1       2       3       4
e|----------------------------------|
B|------------------9-9-9-----------|
G|--6-6-6-6-6-6-6---9-9-9---8-8-8---|
D|--7-7-7-7-7-7-7---9-9-9---9-9-9---|
A|--7-7-7-7-7-7-7---7-7-7---9-9-9---|
E|--5-5-5-5-5-5-5-x-7-7-7-x-7-7-7-x-|

    1       2       3       4
e|------------------5~~~~~~~~~~~~~~~|
B|------------------5~~~~~~~~~~~~~~~|
G|--6-6-6-6-6-6-6-6-5~~~~~~~~~~~~~~~|
D|--7-7-7-7-7-7-7-7-7~~~~~~~~~~~~~~~|
A|--7-7-7-7-7-7-7-7-7~~~~~~~~~~~~~~~|
E|--5-5-5-5-5-5-5-5-5~~~~~~~~~~~~~~~|

{CHORUS}
    1       2       3       4
e|----------------------------------|
B|--9-9-------------5-5-------------|
G|--9-9---5-5-5-5---6-6---6-6-6-6---|
D|--9-9---6-6-6-6---6-6---7-7-7-7---| {repeat x4}
A|--7-7---6-6-6-6---4-4---7-7-7-7---|
E|--7-7-x-4-4-4-4-x-4-4-x-5-5-5-5-x-|

    1       2       3       4
e|----------------------------------|
B|----------------------------------|
G|--1-1---------1-------------------|
D|------2-2-----------444-4-4-2-1-2-|
A|----------4-4---------------------|
E|----------------------------------|

    1       2       3       4
e|----------------------------------|
B|----------------------------------|
G|--------------------111-1-1-2-1---|
D|--4-4-1-1-----4-----------------4-|
A|----------2-2---------------------|
E|----------------------------------|

{VERSE 2}
    1       2       3       4
e|----------------------------------|
B|--5-5-------------9-9-------------|
G|--6-6-------------9-9-----8-8-----|
D|--6-6-------------9-9-----9-9-----|
A|--4-4-------------7-7-----9-9-----|
E|--4-4-x-x-x-x-x-x-7-7-x-x-7-7-x-x-|

    1       2       3       4
e|----------------------------------|
B|----------------------------------|
G|--4-4-------------8-8-----5-5-----|
D|--6-6-------------9-9-----6-6-----|
A|--6-6-------------9-9-----6-6-----|
E|--4-4-x-x-x-x-x-x-7-7-x-x-4-4-x-x-|

    1       2       3       4
e|----------------------------------|
B|--5-5-------------9-9-------------|
G|--6-6-------------9-9-----8-8-----|
D|--6-6-------------9-9-----9-9-----|
A|--4-4-------------7-7-----9-9-----|
E|--4-4-x-x-x-x-x-x-7-7-x-x-7-7-x-x-|

    1       2       3       4
e|----------------------------------|
B|----------------------------------|
G|--4-4-------------8-8-----4-4-----|
D|--6-6-------------9-9-----6-6-----|
A|--6-6-------------9-9-----6-6-----|
E|--4-4-x-x-x-x-x-x-7-7-x-x-4-4-x-x-|

{PRE-CHORUS}
    1       2       3       4
e|----------------------------------|
B|------------------9-9-9-9-9-9-9---|
G|--6-6-6-6-6-6-6---9-9-9-9-9-9-9---|
D|--7-7-7-7-7-7-7---9-9-9-9-9-9-9---|
A|--7-7-7-7-7-7-7---7-7-7-7-7-7-7---|
E|--5-5-5-5-5-5-5-x-7-7-7-7-7-7-7-x-|

    1       2       3       4
e|----------------------------------|
B|------------------9-9-9-----------|
G|--6-6-6-6-6-6-6---9-9-9---8-8-8---|
D|--7-7-7-7-7-7-7---9-9-9---9-9-9---|
A|--7-7-7-7-7-7-7---7-7-7---9-9-9---|
E|--5-5-5-5-5-5-5-x-7-7-7-x-7-7-7-x-|

    1       2       3       4
e|------------------5~~~~~~~~~~~~~~~|
B|------------------5~~~~~~~~~~~~~~~|
G|--6-6-6-6-6-6-6-6-5~~~~~~~~~~~~~~~|
D|--7-7-7-7-7-7-7-7-7~~~~~~~~~~~~~~~|
A|--7-7-7-7-7-7-7-7-7~~~~~~~~~~~~~~~|
E|--5-5-5-5-5-5-5-5-5~~~~~~~~~~~~~~~|

{CHORUS}
    1       2       3       4
e|----------------------------------|
B|--9-9-------------5-5-------------|
G|--9-9---5-5-5-5---6-6---6-6-6-6---|
D|--9-9---6-6-6-6---6-6---7-7-7-7---| {repeat x4}
A|--7-7---6-6-6-6---4-4---7-7-7-7---|
E|--7-7-x-4-4-4-4-x-4-4-x-5-5-5-5-x-|

    1       2       3       4
e|----------------------------------|
B|--5-------------------------------|
G|--6-------------------------------|
D|--6-------------------------------|
A|--4-----------------------{{{{{{{{|
E|--4-----------------------{{{{{{{{|

{BREAK}
    1       2       3       4
e|----------------------------------| {11's and 10's,
B|----------------------------------| not 1's or 0's)
G|------9-----9---9------11----10---|
D|-1111--1111--11--101010----10-----|
A|----------------------------------|
E|----------------------------------|

    1       2       3       4
e|----------------------------------| {11's, not 1's}
B|----------------------------------|
G|-----11----11--11-------9-----9---|
D|--9-9---9-9---9---8-8-8-----8-----| {repeat x2}
A|----------------------------------|
E|----------------------------------|

    1       2       3       4
e|----------------------------------|
B|----------------------------------|
G|--6-6-----6-6-----6-6-----6-6-----|
D|--7-7-----7-7-----7-7-----7-7-----|
A|--7-7-----7-7-----7-7-----7-7-----|
E|--5-5-x-x-5-5-x-x-5-5-x-x-5-5-x-x-|

    1       2       3       4
e|----------------------------------|
B|----------------------------------|
G|--8-8-----8-8-----8-(silence)-----|
D|--9-9-----9-9-----9---------------|
A|--9-9-----9-9-----9---------------|
E|--7-7-x-x-7-7-x-x-7---------------|

{BRIDGE}
    1       2       3       4
e|----------------------------------| {palm-muted or pedal}
B|--9-9-9-9---------5-5-5-5---------|
G|--9-9-9-9-5-5-5-5-6-6-6-6-6-6-6-6-|
D|--9-9-9-9-6-6-6-6-6-6-6-6-7-7-7-7-| {repeat x4}
A|--7-7-7-7-6-6-6-6-4-4-4-4-7-7-7-7-|
E|--7-7-7-7-4-4-4-4-4-4-4-4-5-5-5-5-|

{CHORUS}
    1       2       3       4
e|----------------------------------|
B|--9-9-------------5-5-------------|
G|--9-9---5-5-5-5---6-6---6-6-6-6---|
D|--9-9---6-6-6-6---6-6---7-7-7-7---| {repeat x8}
A|--7-7---6-6-6-6---4-4---7-7-7-7---|
E|--7-7-x-4-4-4-4-x-4-4-x-5-5-5-5-x-|

{OUTRO}
    1       2       3       4
e|----------------------------------|
B|----------------------------------|
G|--1-1---------1-------------------|
D|------2-2-----------4-4-4-4-2-1-2-|
A|----------4-4---------------------|
E|----------------------------------|

    1       2       3       4
e|----------------------------------|
B|----------------------------------|
G|--------------------1-1-1-1-2-1---|
D|--4-4-1-1-----4-----------------4-|
A|----------2-2---------------------|
E|----------------------------------|

    1       2       3       4
e|----------------------------------|
B|----------------------------------|
G|--1-1---------1-------------------|
D|------2-2-----------4-4-4-4-2-1-2-|
A|----------4-4---------------------|
E|----------------------------------|

    1       2       3       4
e|----------------------------------|
B|----------------------------------|
G|--------------------1-1-1-1-2-1---|
D|--4-4-1-1-----4-----------------4-|
A|----------2-2---------------------|
E|----------------------------------|

    1       2       3       4
e|--7~~~~~~~~~~~~~~~~~~~~~~~~~~~~~~~|
B|--9~~~~~~~~~~~~~~~~~~~~~~~~~~~~~~~|
G|--9~~~~~~~~~~~~~~~~~~~~~~~~~~~~~~~|
D|--9~~~~~~~~~~~~~~~~~~~~~~~~~~~~~~~|
A|--7~~~~~~~~~~~~~~~~~~~~~~~~~~~~~~~|
E|--7~~~~~~~~~~~~~~~~~~~~~~~~~~~~~~~|
Tap to rate this tab
# A B C D E F G H I J K L M N O P Q R S T U V W X Y Z