Guitaretab - guitar tabs
Song name
# A B C D E F G H I J K L M N O P Q R S T U V W X Y Z

The Pink Spiders - Adalae tab

Band Name: The Pink Spiders
Song Name: Adalae
Solo Tab

Standard Tuning (E A D G B e)
[ Tab from: http://www.guitaretab.com/t/the-pink-spiders/81534.html ]
|-8h10p8------------------------------------------------------|
|--------10-10-10-10-10-10-10-11--8-8-------------5h6p5--8/10-|
|-------------------------------------------5h7p5-------------|
|-------------------------------------------------------------|
|-------------------------------------------------------------|
|-------------------------------------------------------------|


|-8h10p8---------------------------------------8h10/13~-------|
|--------10-10-10-10-10-10-10-11--8-8~-h10p8------------------|
|-------------------------------------------------------------|
|-------------------------------------------------------------|
|-------------------------------------------------------------|
|-------------------------------------------------------------|

If you have any questions, you can email me at Gauntlet211@aol.com
Related for Adalae tab
Adalae chords by The Pink Spiders