Guitaretab - guitar tabs
Song name
# A B C D E F G H I J K L M N O P Q R S T U V W X Y Z

The Pink Spiders - Soft Smoke tab

-------------------------------------------------------------------------------
			     SOFT SMOKE - The Pink Spiders
-------------------------------------------------------------------------------
Tabbed by: ShrimpthePimp [Chris San Andres]
Email: Shrimpthepimp112@yahoo.com

Tuning: Standard



***NOTE 1****
The little thing at the end of Chrous I is probably wrong,
I couldnt figure it out, suggestions?

***NOTE 2***
At the VERY end of the song, there is a pickscrape.



Intro

e|---------------------------------------------------------------------------|
B|---------------------------------------------------------------------------|
G|--7---------------7-9--7-9-7-9b(10)-7---------------5-7--5-7-5-7b(8)-7-5---|
D|--7--7--9--9--7h9---------------------9---7--7--5h7------------------------|
A|--5--7--9--9------------------------------7--7-----------------------------|
E|-----5--7--7------------------------------5--5-----------------------------|
         bend up and gradually release
e|---------------------------------------------------------------------------|
B|---------------------------------------------------------------------------|
G|------------7-9b(11)rp 7--------------5-7--5-7-5-7-5-----------------------|
D|--9--9--7h9-----------------7--7--5h7--------------------------------------|
A|--9--9----------------------7--7-------------------------------------------|
E|--7--7----------------------5--5-------------------------------------------|


Gtr II comes in
e|---------------------------------------------------------------------------|
B|---------------------------------------------------------------------------|
G|------------7-9--7-9-7-9b(10)-7---------------5-7--5-7-5-7b(8)-7-5---------|
D|--9--9--7h9---------------------9---7--7--5h7------------------------------|
A|--9--9------------------------------7--7-----------------------------------|
E|--7--7------------------------------5--5-----------------------------------|

[Gtr 2]
e|---------------------------------------------------------------------------|
B|---------------------------------------------------------------------------|
G|---------------------------------------------------------------------------|
D|--9--9--9-9-9-9-9-9-9-9-9-9-9-9-9---7--7--7-7-7-7-7-7-7-7-7-7-7-7-7-7------|
A|--9--9--9-9-9-9-9-9-9-9-9-9-9-9-9---7--7--7-7-7-7-7-7-7-7-7-7-7-7-7-7------|
E|--7--7--7-7-7-7-7-7-7-7-7-7-7-7-7---5--5--5-5-5-5-5-5-5-5-5-5-5-5-5-5------|

         bend up and gradually release
e|---------------------------------------------------------------------------|
B|---------------------------------------------------------------------------|
G|------------7-9b(11)rp 7--------------5-7--5-7-5-7-5-----------------------|
D|--9--9--7h9-----------------7--7--5h7--------------------------------------|
A|--9--9----------------------7--7-------------------------------------------|
E|--7--7----------------------5--5-------------------------------------------|

[Gtr 2]
e|---------------------------------------------------------------------------|
B|---------------------------------------------------------------------------|
G|---------------------------------------------------------------------------|
D|--9--9--9-9-9-9-9-9-9-9-9---7--7--7-7-7-7-7-7-7-7-7-7----------------------|
A|--9--9--9-9-9-9-9-9-9-9-9---7--7--7-7-7-7-7-7-7-7-7-7----------------------|
E|--7--7--7-7-7-7-7-7-7-7-7---5--5--5-5-5-5-5-5-5-5-5-5----------------------|


Verse I

e|---------------------------------------------------------------------------|
B|---------------------------------------------------------------------------|
G|------------------------------------------------------------7--------------|
D|--9-9-9-9-9---7-7-7-7-7---5-5-5-5--7-7-7-7---9-9-9-9-9-9----7--7--9--9-----|
A|--9-9-9-9-9---7-7-7-7-7---5-5-5-5--7-7-7-7---9-9-9-9-9-9----5--7--9--9-----|
E|--7-7-7-7-7---5-5-5-5-5---3-3-3-3--5-5-5-5---7-7-7-7-7-7-------5--7--7-----|

e|---------------------------------------------------------------------------|
B|---------------------------------------------------------------------------|
G|---------------------------------------------------------------------------|
D|--9-9-9-9-9-9-9-9---7-7-7-7-7-7-7---5-5-5-5--7-7-7-7--9-9-9-9-9-9-9-9-9----|
A|--9-9-9-9-9-9-9-9---7-7-7-7-7-7-7---5-5-5-5--7-7-7-7--9-9-9-9-9-9-9-9-9----|
E|--7-7-7-7-7-7-7-7---5-5-5-5-5-5-5---3-3-3-3--5-5-5-5--7-7-7-7-7-7-7-7-7----|


Bridge I

e|---------------------------------------------------------------------------|
B|---------------------------------------------------------------------------|
G|--7---------------7-9--7-9-7-9b(10)-7---------------5-7--5-7-5-7b(8)-7-5---|
D|--7--7--9--9--7h9---------------------9---7--7--5h7------------------------|
A|--5--7--9--9------------------------------7--7-----------------------------|
E|-----5--7--7------------------------------5--5-----------------------------|
         bend up and gradually release
e|---------------------------------------------------------------------------|
B|---------------------------------------------------------------------------|
G|------------7-9b(11)rp 7--------------5-7--5-7-5-7-5-----------------------|
D|--9--9--7h9-----------------7--7--5h7--------------------------------------|
A|--9--9----------------------7--7-------------------------------------------|
E|--7--7----------------------5--5-------------------------------------------|


Verse II

e|---------------------------------------------------------------------------|
B|---------------------------------------------------------------------------|
G|------------------------------------------------------------7--------------|
D|--9-9-9-9-9---7-7-7-7-7---5-5-5-5--7-7-7-7---9-9-9-9-9-9----7--7--9--9-----|
A|--9-9-9-9-9---7-7-7-7-7---5-5-5-5--7-7-7-7---9-9-9-9-9-9----5--7--9--9-----|
E|--7-7-7-7-7---5-5-5-5-5---3-3-3-3--5-5-5-5---7-7-7-7-7-7-------5--7--7-----|

e|---------------------------------------------------------------------------|
B|---------------------------------------------------------------------------|
G|---------------------------------------------------------------------------|
D|--9-9-9-9-9-9-9-9---7-7-7-7-7-7-7---5-5-5-5--7-7-7-7--9-9-9-9-9-9-9-9-9----|
A|--9-9-9-9-9-9-9-9---7-7-7-7-7-7-7---5-5-5-5--7-7-7-7--9-9-9-9-9-9-9-9-9----|
E|--7-7-7-7-7-7-7-7---5-5-5-5-5-5-5---3-3-3-3--5-5-5-5--7-7-7-7-7-7-7-7-7----|


Chrous I
     
e|----------------------------------------------------------7--5-7-5-7-5-----|
B|----------------------------------------------------------8--5-8-5-8-5-----|
G|--7-7-7-7-7--9-9-9-9-9------------------------7-7-7-7-7---7--5-7-5-7-5-----|
D|--7-7-7-7-7--9-9-9-9-9--7-7-7-7-7--5-5-5-5-5--7-7-7-7-7--------------------|
A|--5-5-5-5-5--7-7-7-7-7--7-7-7-7-7--5-5-5-5-5--5-5-5-5-5--------------------|
E|------------------------5-5-5-5-5--3-3-3-3-3-------------------------------|
[ Tab from: http://www.guitaretab.com/t/the-pink-spiders/89199.html ]
e|---------------------------------------------------------------------------|
B|---------------------------------------------------------------------------|
G|--7-7-7-7-7-7-7--9-9-9-9-9-9-----------------------------------------------|
D|--7-7-7-7-7-7-7--9-9-9-9-9-9--7-7-7-7-7---5--5-----------------------------|
A|--5-5-5-5-5-5-5--7-7-7-7-7-7--7-7-7-7-7---5--5-----------------------------|
E|------------------------------5-5-5-5-5---3--3-----------------------------|


Bridge II

e|---------------------------------------------------------------------------|
B|---------------------------------------------------------------------------|
G|------------7-9--7-9-7-9b(10)-7---------------5-7--5-7-5-7b(8)-7-5---------|
D|--9--9--7h9---------------------9---7--7--5h7------------------------------|
A|--9--9------------------------------7--7-----------------------------------|
E|--7--7------------------------------5--5-----------------------------------|
         bend up and gradually release
e|---------------------------------------------------------------------------|
B|---------------------------------------------------------------------------|
G|------------7-9b(11)rp 7--------------5-7--5-7-5-7-5-----------------------|
D|--9--9--7h9-----------------7--7--5h7--------------------------------------|
A|--9--9----------------------7--7-------------------------------------------|
E|--7--7----------------------5--5-------------------------------------------|


Gtr II comes in
e|---------------------------------------------------------------------------|
B|---------------------------------------------------------------------------|
G|------------7-9--7-9-7-9b(10)-7---------------5-7--5-7-5-7b(8)-7-5---------|
D|--9--9--7h9---------------------9---7--7--5h7------------------------------|
A|--9--9------------------------------7--7-----------------------------------|
E|--7--7------------------------------5--5-----------------------------------|

e|---------------------------------------------------------------------------|
B|---------------------------------------------------------------------------|
G|---------------------------------------------------------------------------|
D|--9--9--9-9-9-9-9-9-9-9-9-9-9-9-9---7--7--7-7-7-7-7-7-7-7-7-7-7-7-7-7------|
A|--9--9--9-9-9-9-9-9-9-9-9-9-9-9-9---7--7--7-7-7-7-7-7-7-7-7-7-7-7-7-7------|
E|--7--7--7-7-7-7-7-7-7-7-7-7-7-7-7---5--5--5-5-5-5-5-5-5-5-5-5-5-5-5-5------|

         bend up and gradually release
e|---------------------------------------------------------------------------|
B|---------------------------------------------------------------------------|
G|------------7-9b(11)rp 7--------------5-7--5-7-5-7-5-----------------------|
D|--9--9--7h9-----------------7--7--5h7--------------------------------------|
A|--9--9----------------------7--7-------------------------------------------|
E|--7--7----------------------5--5-------------------------------------------|

e|---------------------------------------------------------------------------|
B|---------------------------------------------------------------------------|
G|---------------------------------------------------------------------------|
D|--9--9--9-9-9-9-9-9-9-9-9---7--7--7-7-7-7-7-7-7-7-7-7----------------------|
A|--9--9--9-9-9-9-9-9-9-9-9---7--7--7-7-7-7-7-7-7-7-7-7----------------------|
E|--7--7--7-7-7-7-7-7-7-7-7---5--5--5-5-5-5-5-5-5-5-5-5----------------------|


Bridge III

e|---------------------------------------------7-7-7-7--9-9-9-9--------------|
B|---------------------------------------------7-7-7-7--9-9-9-9--------------|
G|---------------------------------------------7-7-7-7--9-9-9-9--------------|
D|--9-9-9-9-9-9-9-9-9-9--7-7-7---5-5-5-5-5-5---7-7-7-7--9-9-9-9--------------|
A|--9-9-9-9-9-9-9-9-9-9--7-7-7---5-5-5-5-5-5---5-5-5-5--7-7-7-7--------------|
E|--7-7-7-7-7-7-7-7-7-7--5-5-5---3-3-3-3-3-3---------------------------------|

e|---------------------------------------------------------------------------|
B|---------------------------------------------------------------------------|
G|------------6-6-6-6---4-4-4-4----------------------------------------------|
D|--7-7-7-7---6-6-6-6---4-4-4-4---5-5-5-5---7-7-7-7-7-7-7-7------------------|
A|--7-7-7-7---4-4-4-4---2-2-2-2---5-5-5-5---7-7-7-7-7-7-7-7------------------|
E|--5-5-5-5-----------------------3-3-3-3---5-5-5-5-5-5-5-5------------------|


Chorus II


e|----------------------------------------------------------7--5-7-5-7-5-----|
B|----------------------------------------------------------8--5-8-5-8-5-----|
G|--7-7-7-7-7--9-9-9-9-9------------------------7-7-7-7-7---7--5-7-5-7-5-----|
D|--7-7-7-7-7--9-9-9-9-9--7-7-7-7-7--5-5-5-5-5--7-7-7-7-7--------------------|
A|--5-5-5-5-5--7-7-7-7-7--7-7-7-7-7--5-5-5-5-5--5-5-5-5-5--------------------|
E|------------------------5-5-5-5-5--3-3-3-3-3-------------------------------|

e|----------------------------------------------------------7--5-7-5-7-5-----|
B|----------------------------------------------------------8--5-8-5-8-5-----|
G|--7-7-7-7-7--9-9-9-9-9------------------------7-7-7-7-7---7--5-7-5-7-5-----|
D|--7-7-7-7-7--9-9-9-9-9--7-7-7-7-7--5-5-5-5-5--7-7-7-7-7--------------------|
A|--5-5-5-5-5--7-7-7-7-7--7-7-7-7-7--5-5-5-5-5--5-5-5-5-5--------------------|
E|------------------------5-5-5-5-5--3-3-3-3-3-------------------------------|

e|----------------------------------------------------------7--5-7-5-7-5-----|
B|----------------------------------------------------------8--5-8-5-8-5-----|
G|--7-7-7-7-7--9-9-9-9-9------------------------7-7-7-7-7---7--5-7-5-7-5-----|
D|--7-7-7-7-7--9-9-9-9-9--7-7-7-7-7--5-5-5-5-5--7-7-7-7-7--------------------|
A|--5-5-5-5-5--7-7-7-7-7--7-7-7-7-7--5-5-5-5-5--5-5-5-5-5--------------------|
E|------------------------5-5-5-5-5--3-3-3-3-3-------------------------------|


e|---------------------------------------------------------------------------|
B|---------------------------------------------------------------------------|
G|--7-7-7-7-7-7-7--9-9-9-9-9-9--------------------------7-7-7-7-7------------|
D|--7-7-7-7-7-7-7--9-9-9-9-9-9--7-7-7-7-7---5-5-5-5-5---7-7-7-7-7------------|
A|--5-5-5-5-5-5-5--7-7-7-7-7-7--7-7-7-7-7---5-5-5-5-5---5-5-5-5-5------------|
E|------------------------------5-5-5-5-5---3-3-3-3-3------------------------|


e|---------------------------------------------------------------------------|
B|---------------------------------------------------------------------------|
G|--9-9-9-9-9-9-------------------------------7~-----------------------------|
D|--9-9-9-9-9-9---5-5-5-5-5-5---7-7-7-7-7-7---7~-----------------------------|
A|--7-7-7-7-7-7---5-5-5-5-5-5---7-7-7-7-7-7---5~-----------------------------|
E|----------------3-3-3-3-3-3---5-5-5-5-5-5----------------------------------|



LEGEND!

| /  slide up
| \  slide down
| h  hammer-on
| p  pull-off
| ~  vibrato
| b  bend
Related for Soft Smoke tab
Soft Smoke chords by The Pink Spiders