Song name
# A B C D E F G H I J K L M N O P Q R S T U V W X Y Z

The Pinker Tones - The Whistling Song tab

Hey, whats up
if you looked this tab up let me be the first to tell you that you're pimpin, cuz this 
is REALLY pimpin.
this is my first tab and i spent about an hour coming up with it
i dunno how to play bass so i didn't put the bass tab up
sorry

GUITAR 1:
(MAIN TUNE)
(first the little drum roll goes on. Then...)

E|-13--------------------------------------------11--------------11-------|
B|-11-----11-10--------------11-10-------------11---11-10------11---10-11-|
G|---10-12-------10-12--10-12------10-12--10-12-----------10-12-----------|
D|------------------------------------------------------------------------|
A|------------------------------------------------------------------------|
E|------------------------------------------------------------------------|

E---------------------------------------------11--------------11----|
B------11-10--------------11-10-------------11---11-10------11---10-|
G-10-12-------10-12--10-12------10-12--10-12-----------10-12--------| x2
D-------------------------------------------------------------------|
A-------------------------------------------------------------------|
E-------------------------------------------------------------------|

(BRIDGE)
[1st part]
E|-13---------------------------------|<-----"I'm Whistling for my looove!"
B|-11-----11-10--------------11-10----|
G|---10-12-------10-12--10-12------10-| x2
D|------------------------------------|
A|------------------------------------|
E|------------------------------------|
(2nd part)
E|----------11----------13-10-----|<----"Oooooooo love"
B|--------11---11-10--------------|
G|12-10-12-------------------12-10|
D|--------------------------------|
A|--------------------------------|
E|--------------------------------|
(3rd part)
E|----------11-----------|
B|--------11---11-10-----|
G|12-10-12---------------| then play the 2nd part again
D|--------------------14b|
A|-----------------------|
E|-----------------------|
(part 4)
E|-------------------------------|<--------"All I do is whistle for you"
B|11---8-11--8-11--8-11--15-15-15|
G|-------------------------------|
D|-------------------------------|
A|-------------------------------|
E|-------------------------------|

(Main Tune) x1
and at the same time play this with:
(Guitar 2)
E|------------------------------------------------------|
B|------------------------------------------------------|
G|------------------------------------3-3---2-2-5-5-5-5-| x4 (2 times with
D|------3-3-5-3------3-3-5-3---1-1-5-5---3-3------------|     Main Tune)
A|---5-5----------5-5-------3-3-------------------------|
E|6-6----------6-6--------------------------------------|

After the trumped scale:

                           [Play this part the second time]----v
                    [Play this part the first time]-------------------|v
E|-------------------------------------------------------|--|---------|
B|11---------11--11--------------------------------------|--|---10----| x2
G|--10-12-10---------10-12-10----12---------10--10--10-12|10|-12------|
D|---------------------------------10-13-10--------------|--|---------|
A|-------------------------------------------------------|--|---------|
E|-------------------------------------------------------|--|---------|

Then play:
(Main Tune) x1
(Bridge) x1
(Main Tune[x1] + Guitar 2[x4])
play main tune through to the end.

-------------------------------------------------------------------|
-------------------------------------------------------------------|

Guitar 3
Play on the down beat

During (Main Tune)
E|-10--10--10--10--10--10--10--10--11--11--11--11--8---8---8---8-|
B|-11--11--11--11--11--11--11--11--13--13--13--13--10--10--10--10| x2
G|-10--10--10--10--10--10--10--10--12--12--12--12--10--10--10--10|
D|---------------------------------------------------------------|
A|---------------------------------------------------------------|
E|---------------------------------------------------------------|

During(Bridge)
part 1
E|-10--10--10--10--10--10--10--10--10--10--10--10--10--10--10--10|
B|-11--11--11--11--11--11--11--11--11--11--11--11--11--11--11--11| x1
G|-10--10--10--10--10--10--10--10--10--10--10--10--10--10--10--10|
D|---------------------------------------------------------------|
A|---------------------------------------------------------------|
E|---------------------------------------------------------------|

part 2 & 3
E|--11--11--11--11--8---8---8---8-|
B|--13--13--13--13--10--10--10--10| x3
G|--12--12--12--12--10--10--10--10|
D|--------------------------------|
A|--------------------------------|
E|--------------------------------|

part 4
E|-10--10--10--10--11--11--8---8---|
B|-11--11--11--11--13--11--10--10--| x1
G|-10--10--10--10--12--12--10--10--|
D|---------------------------------|
A|---------------------------------|
E|---------------------------------|

Then play:
(Main Tune) x1
(Bridge) x1
(Main Tune[x1] + Guitar 2[x3])
Main Tune Through the End

It's Tiiiite
http://thepinkertones.com/
Tap to rate this tab
 
# A B C D E F G H I J K L M N O P Q R S T U V W X Y Z