Guitaretab - guitar tabs
Song name
# A B C D E F G H I J K L M N O P Q R S T U V W X Y Z

The Plastic Fiction - Cant You See tab

-------------------------------------------------------------------------------
			     Can't You See? - Plastic Fiction
-------------------------------------------------------------------------------
Tabbed by:Cortezio
Email:Curzio@mclink.it

Not that many people have heard of plastic fiction,so visit their myspace 
and this is one of their best songs...sorry I haven't tabbed out the solo, working on it ATM...

Tuning:Standard

e|-2-2---------2-----2-2---------2-----2-3-2---2-2-3-2-----------------------|
B|-2---2---------2---2---2---------2---3-----3-3-3-----3---------------------|
G|-0-----0---------0-0-----0---------0-2-------2-2---------2------2----------|
D|-2-------2-2-------0-------0-0-------0-------------------2------2----------|
A|-2-------2-2-------2-------2-2---------------------------0------0----------|
E|-0-------0-0-------3-------3-3---------------------------------------------|
[ Tab from: http://www.guitaretab.com/t/the-plastic-fiction/184797.html ]
e|---------------------------------------------------------------------------|
B|---------------------------------------------------------------------------|
G|-----------------------------------7777777777777777-5555555555555555-------|
D|-2222222222222222-5555555555555555-7777777777777777-5555555555555555-------|
A|-2222222222222222-5555555555555555-5555555555555555-3333333333333333-------|
E|-0000000000000000-3333333355555555-----------------------------------------|

e|---------------------------------------------------------------------------|
B|---------------------------------------------------------------------------|
G|---------------------------------------------------------------------------|
D|-33333333-55555555-77777777-7777-7777--------------------------------------|
A|-33333333-55555555-77777777-7777-7777--------------------------------------|
E|-11111111-33333333-55555555-5555-3333--------------------------------------|

That's basically it, apart from the solo...any adjustments are welcome...

Cortezio...
===============================================================================
Advertisement will be closed in 10 seconds