Song name
# A B C D E F G H I J K L M N O P Q R S T U V W X Y Z

The Plot In You - The Fathers Seed tab

Tabbed by:
Aaron

Tuning:
dropB

e|---------------------------------------------------------------------------|
B|---------------------------------------------------------------------------|
G|---------------------------------------------------------------------------|
D|111--111-1111-1-1-111--111-111-1--111-111----------------------------------|
A|000--000-0000-0-0-000--000-000-0--000-000----------------------------------|
E|111--111-1111-1-1-111--111-111-1--111-111-6-3-0-6-3-0-3*-------------------|

e|---------------------------------------------------------------------------|
B|---------------------------------------------------------------------------|
G|---------------------------------------------------------------------------|
D|---------------------------------------------------------------------------|
A|-6----5----00-6----5----00-6----5----6----5--------------------------------|
E|--3-0--3-0-00--3-0--3-0-00--3-0--3-0--3-0--6-0-6666------------------------|

2x
e|---------------------------------------------------------------------------|
B|---------------------------------------------------------------------------|
G|---------------------------------------------------------------------------|
D|---------------------------------------------------------------------------|
A|-00000--000-00000--000-0-00000--000--000--000------------------------------|
E|-00000--000-00000--000-0-00000--000--000--000------------------------------|


2x
e|---------------------------------------------------------------------------|
B|---------------------------------------------------------------------------|
G|---------------------------------------------------------------------------|
D|---------------------------------------------------------------------------|
A|-000-000---000-000-000-00000000--------------------------------------------|
E|-111-111---111-111-111-11111111--------------------------------------------|


2x
e|---------------------------------------------------------------------------|
B|---------------------------------------------------------------------------|
G|---------------------------------------------------------------------------|
D|---------------------------------------------------------------------------|
A|-000-000---00000000-0-0-0-0------------------------------------------------|
E|-111-111---11111111-1-1-1-1------------------------------------------------|


verse
e|----------------------------------------------------------------------------|
B|----------------------------------------------------------------------------|
G|----------------------------------------------------------------------------|
D|----6-6b------------------6-6b----------------------------------------------|
A|---------6-55------------------6-55--000-0-0--------------------------------|
E|-0-0-0--0-0--0-1-1-1-1-0-0-0--0-0--0-111-1-1--------------------------------|

e|--------------------------------------------|
B|--------------------------------------------|
G|--------------------------------------------|
D|----6-6b-----------------6-6666-0000-3333---|
A|---------6-55-------------------0000-3333---|
E|-0-0-0--0-0--0-1-1-1-1-00-0-----0000-3333---|


chorus
e|--------------------------------------------------------------------------------|
B|--------------------------------------------------------------------------------|
G|--------------------------------------------------------------------------------|
D|-00000000-33333333-55555555-------------00000000-33333333-1111111111111111------|
A|-00000000-33333333-55555555----5-5\6/5--00000000-33333333-1111111111111111------|
E|-00000000-33333333-55555555-00--0-----0-00000000-33333333-1111111111111111------|




e|-----------------------------|
B|-----------------------------|
G|-----------------------------|
D|-----------------------------|
A|2-1--2-1-2-1---2-1--2-1-2-1--|
E|3-2--3-2-3-2---3-2--3-2-3-2--|


e|--------------------------------------------------------------|
B|--------------------------------------------------------------|
G|--------------------------------------------------------------|
D|--------------------------------------------------------------|
A|-2-1-2-1--2-1-2-1-1-1-0-0-0-0---2-1-2-1--2-1-2-1-1-1-0-0-0-0--|
E|-3-2-3-2--3-2-3-2-2-2-1-1-1-0---3-2-3-2--3-2-3-2-2-2-1-1-1-0--|

2x
e|--0-0-----00000------|
B|--4-4-----44444------|
G|--0-0-----00000------|
D|---------------------|
A|00----000-------000--|
E|11----111-------111--|

verse

chorus

"you are not my son, I am not your father. just know one thing..."
guitar1
e|-13t----12t----10t---------------------------------------------------------|
B|---------------------------------------------------------------------------|
G|---------------------------------------------------------------------------|
D|---------------------------------------------------------------------------|
A|---------------------------------------------------------------------------|
E|---------------------------------------------------------------------------|

guitar2
e|---------------------------------------------------------------------------|
B|---------------------------------------------------------------------------|
G|---------------------------------------------------------------------------|
D|---------------------------------------------------------------------------|
A|0-0-0-0-000-0-0-0-000-0-0-0-000--------------------------------------------|
E|0-0-0-0-000-0-0-0-000-0-0-0-000--------------------------------------------|

"i wanted you dead!!"


e|---------------------------------------------------------------------------|
B|---------------------------------------------------------------------------|
G|---------------------------------------------------------------------------|
D|---------------------------------------------------------------------------|
A|00-0-0-00-0-00-00-000000-0-0-00-0-00-000-000-------------------------------|
E|00-0-0-00-0-00-00-000000-0-0-00-0-00-000-000-------------------------------|

e|---------------------------------------------------------------------------|
B|---------------------------------------------------------------------------|
G|---------------------------------------------------------------------------|
D|---------------------------------------------------------------------------|
A|00-0-0-00-0-00-00-000000-0-0-00-0-00-000-000-------------------------------|
E|11-1-1-11-1-11-11-111111-1-1-11-1-11-111-111-------------------------------|

"there's nothing left here. there's nothing left here." 2x
e|---------------------------------------------------------------------------|
B|---------------------------------------------------------------------------|
G|---------------------------------------------------------------------------|
D|0~~------------------------------------------------------------------------|
A|0~~------------------------------------------------------------------------|
E|0~~------------------------------------------------------------------------|

"there's nothing left!!" 2x
e|---------------------------------------------------------------------------|
B|---------------------------------------------------------------------------|
G|---------------------------------------------------------------------------|
D|---------------------------------------------------------------------------|
A|000-000---000-000-0-0-0-0-000000000---000-000-0-0--------------------------|
E|000-000---000-000-0-0-0-0-000000000---000-000-0-0--------------------------|

Tap to rate this tab
 
# A B C D E F G H I J K L M N O P Q R S T U V W X Y Z