Song name
# A B C D E F G H I J K L M N O P Q R S T U V W X Y Z

The Plot In You - Small Face tab

Hey there!

Hope ya enjoy!
BTW: This is only the guitar 1 tab (left speaker)

Tuning: A# F A# D# G C (Drop A#)
                                         1st Ending    2nd
C |------------------------------------|-------------|-------|
G |------------------------------------|-------------|-------|
D#|------------------------------------|-------------|-------|
A#|------------------------------------|-------------|-------|
F |------------------13-----12---------|-------------|-------|
A#|-0000-0-12-15-0-12---0-11----0-12-0-|-12-15-0-11--|-3333--|

C |-------------------|
G |-------------------|
D#|-------------------|
A#|-------------------|
F |-------------------|
A#|-33333333-11111111-|

C |---------------------------|
G |---------------------------|
D#|---------------------------|
A#|---------------------------|
F |-00-00-00-0-0-00-00-0000---|
A#|-00-00-00-0-0-00-00-0000---|

C |-------------------------------------|
G |-------------------------------------|
D#|-------------------------------------|
A#|-------------------------------------|
F |-------3------------------3----------|
A#|-4-1-0---1-0-0000---4-1-0---1-0-1-0--|

C |----------------------|
G |----------------------|
D#|----------------------|
A#|----------------------|
F |----------------------|
A#|-33333333--666666666--|

C |---------------------------------------------------------------------|
G |---------------------------------------------------------------------|
D#|-777777777777777777--------------------------------------------------|
A#|-xxxxxxxxxxxxxxxxxx--0000000000000000-8888888888888888-5555555555555-|
F |-555555555555555555--0000000000000000-8888888888888888-5555555555555-|
A#|---------------------0000000000000000-8888888888888888-5555555555555-|

C |-----------------------------------------|
G |-----------------------------------------|
D#|-----------------------------------------|
A#|-33333333333-5555555555555-000000000000--|
F |-33333333333-5555555555555-000000000000--|
A#|-33333333333-5555555555555-000000000000--|

(redo intro)
                            1st               2nd
C |-----------------|-----------------|-----------------|
G |-----------------|-----------------|-----------------|
D#|-----------------|-----------------|-----------------|
A#|-----------------|-----------------|-----------------|
F |-000-000-000-000-|-------1-----2---|-------7-8---7---|
A#|-000-000-000-000-|-0-1-4---2-1---1-|-0-7-8-----6---6-|

(redo chorus-ish part)

C |----------------------------------------|
G |----------------------------------------|
D#|----------------------------------------|
A#|----------------------------------------|
F |-000-000--00000000---000-000--00000000--|
A#|-000-000--00000000---000-000--00000000--|

C |----------------------------------------------|
G |----------------------------------------------|
D#|----------------------------------------------|
A#|----------------------------------------------|
F |-000-000-000-000-000-000-000-000-000-000-000--|
A#|-000-000-000-000-000-000-000-000-000-000-000--|

C |----------------------------------------------------|
G |----------------------------------------------------|
D#|----------------------------------------------------|
A#|----------------------------------------------------|
F |-000-000-000-000-000000000-00-00-0-000-000-000-000--|
A#|-000-000-000-000-000000000-00-00-0-000-000-000-000--|

C |---------------------------|
G |---------------------------|
D#|---------------------------|
A#|---0---0---0---0-----------|
F |-0-4-0-4-0-4-0-4--00-0000--|
A#|-0---0---0---0----00-0000--|

C |------------------------------|
G |--11-------11-------11--------|
D#|-----14-14----14-14----14-14--|
A#|------------------------------|
F |------------------------------|
A#|------------------------------|

C |---------------|
G |---------------|
D#|---------------|
A#|---------------|
F |-00-00-00-00---|
A#|-00-00-00-00---|

C |---------------|
G |---------------|
D#|---------------|
A#|---------------|
F |-00-00-00-00~--|
A#|-00-00-00-00~--|

Please Rate And Comment! :D!

Enjoy! :D!
Tap to rate this tab
# A B C D E F G H I J K L M N O P Q R S T U V W X Y Z