Song name
# A B C D E F G H I J K L M N O P Q R S T U V W X Y Z

The Plot To Blow Up The Eiffel Tower - For Marcus tab

http://www.blowuptheeiffeltower.com

ok let me tell u the plot rocks...now that, that is out of the way here is the guitar
i was unable to do the bass parts cuz i'm a lil uncertain about them... but the guitar
i am certain of....there's a saxaphone in this song...and i don't kno how to play 
i didn't put that part in here...its just the guitar.... have funn....and u have to get
timing down for urself on the song...cuz... i don't kno how to tab timing...

intro...

E----------------|
a----------------|
d--0-0-0--0-0-0--|
g--2-2-2--2-2-2--|
b--3-3-3--3-3-3--|
e--1-1-1--0-0-0--|

bass has a solo then... u do this part... u need to check for timing..

E-----------|
a--5--5--5--|
d--7--7--7--|
g--7--7--7--|
b-----------|
e-----------|
   ^  ^  ^

then u break out into this part when he starts singing or something...check the song for
timing...u do this part for 3 times

E------------|
a--5---------|
d--7---------|
g--7-555555--|
b------------|
e------------|
   ^

this part breaks in after the 3 times of the part above

E---------|
a--3-4-5--|
d--5-6-7--|
g--5-6-7--|
b---------|
e---------|
   ^ ^ ^

then u go back to this part

E------------|
a--5---------|
d--7---------|
g--7-555555--|
b------------|
e------------|
   ^

those parts go on for awhile...idk how long...but u find out..i'm lazy to do it...

then when he says "aye" (probably the only words i understand in the song) then u go
to the intro

E----------------|
a----------------|
d--0-0-0--0-0-0--|
g--2-2-2--2-2-2--|
b--3-3-3--3-3-3--|
e--1-1-1--0-0-0--|


CHECK FOR TIMING ON EVERYTHING....
have fun w/ the song...
u have any comments about the song...
castxand13@hotmail.com....
PLOT RULES
Tap to rate this tab
# A B C D E F G H I J K L M N O P Q R S T U V W X Y Z