Song name
# A B C D E F G H I J K L M N O P Q R S T U V W X Y Z

The Pogues - Dirty Old Town tab

The Pogues - Dirty Old Town

E-----------------------------------------------------------5--7---5--------|
B-------3----3/5---5/7----3---5----5/7----3-----------7---------------7---5-|
G--2------------------------------------------2-----------------------------|
D---------------------------------------------------------------------------|
A---------------------------------------------------------------------------|
E---------------------------------------------------------------------------|

E--------------------7---5--------------------------------------------------|
B---3----3/7-----7----------7----3----5----5/7---3--------3----5----5/7---5-|
G----------------------------------------------------2----------------------|
D---------------------------------------------------------------------------|
A---------------------------------------------------------------------------|
E---------------------------------------------------------------------------|


E---------------------------------------------------------------------------|
B----5---3-------0----------------------------------------------------------|
G-------------2-------------------------------------------------------------|
D---------------------------------------------------------------------------|
A---------------------------------------------------------------------------|
E---------------------------------------------------------------------------|

          G
I met my love by the gas works wall
            C               G
Dreamed a dream by the old canal

I Kissed my girl by the factory wall
           D               Em
Dirty old town, dirty old town

             G
Clouds are drifting across the moon
            C               G
Cats are prowling on their beat

Spring's a girl from the streets at night
           D               Em
Dirty old town, dirty old town

INSTRUMENTAL Key change

C, F, C, G, Am

           G
I Heard a siren from the docks
        C                     G
Saw a train set the night on fire

I Smelled the spring on the smoky wind
           D               Em
Dirty old town, dirty old town

           G
I'm gonna make me a big sharp axe
          C                    G
Shining steel tempered in the fire

I'll chop you down like an old dead tree
           D               Em
Dirty old town, dirty old town


          G
I met my love by the gas works wall
            C                G
Dreamed a dream by the old canal

I kissed my girl by the factory wall
           D               Em
Dirty old town, dirty old town
           D               Em
Dirty old town, dirty old town

For any queries contact via e-mail - Orryrob@hotmail.co.uk
Tap to rate this tab
 
# A B C D E F G H I J K L M N O P Q R S T U V W X Y Z