Song name
# A B C D E F G H I J K L M N O P Q R S T U V W X Y Z

The Pogues - Fairytale Of New York tab

INTRO

e|-------7-------9---10----5-----3--2---------------------------------------------------|
B|-10---10---8---8---------3--3--3-------5--3-3------2----------------------------------|
G|-------7-------7---------2-----0-------2--2-2------0----------------------------------|
D|---------------7---------0-----0-------2--2-2------2----------------------------------|
A|------10-------------------------------0--------0--0----------------------------------|
E|--------------------------------------------------------------------------------------|

VERSE (1)

e|--------0------------------------------------------0-----------------------------|
B|------3-----3-3----3--2--2--0-0-----0-2-3-------3----3-3--------2-3---5--4-2-----|
G|----2-------2-2----2--0--0--0-0-----0---------2-----------------2-2---2--2-2-----|
D|--0--------------0--------------------------0-----------------2------------------|
A|------------------------------------------------------------0--------0-----------|
E|-------------------------3----------3--------------------------------------------|

repeat with some variations x3

BRIDGE TO VERSE (2)

e|-------7-------9---10----5-----3--2-----------------5--5--7\5---2----2--5--------|
B|-10---10---8---8---------3--3--3-------5--3--3---------3--------3--3----3--------|
G|-------7-------7---------2-----0-------2--2--2---------2--4\2---2-------2--------|
D|---------------7---------0-----0-------2--2--2---------0--------0-------0--------|
A|------10-------------------------------0-----------------------------------------|
E|---------------------------------------------------------------------------------|

e|---3-------------2--0---------------------2-------------------------------|
B|-----2---5--3-5--3----3--3--0----------2--3-------------------------------|
G|---------2--2-2--2-------------0---2-4----2-------------------------------|
D|---------2--2-2--0-----------------2------0-------------------------------|
A|---------0----------------------------------------------------------------|
E|-------------------------3------------------------------------------------|

VERSE (2)

e|----------------------------------------------2------2----------------------|
B|---------3------3--------3---3---3----------3---3-----3-----2---------------|
G|-------2------2--------2------------------2-------2-----2---2---------------|
D|---0----------------0---------------0-----------------------2---------------|
A|------------0-----------------------------------------------0--0------------|
E|-----------------------------3----------------------------------------------|

e|------------------------------------------------------------------------------|
B|---------3------3--------3---3---3----------3---------3-------------3--3------|
G|-------2------2--------2------------------2--------0----------2-----2---------|
D|---0--------2--------0---------------0----------------------2-------0---------|
A|----------------------------------------------------------0-------------------|
E|-----------------------------3-------------------3----------------------------|

CHORUS

e|---3-----3-----3--3--3-3--2--2-2------2--2-2--2------2-----3---------------------|
B|---3-----3-----3--3--3----3----3--3---3--3-3--3---3--3-3---3------2--2-2---------|
G|---0-----0-----0-----2----2----2------4--4-4--4------2-----0--0---2--2-2---------|
D|---0-----------x-----2----0----0------4-------4------0-----0------2----2---------|
A|---x-----------2----------------------2-------2------------x------0----0---------|
E|---3-------------------------------------------------------3---------------------|



(CHORUS EXTENSION AT END)

e|---2---2-2-----5--5-5--5----------------------------------------------------------|
B|---3---3-3-----3--3-3--3----------------------------------------------------------|
G|---2-----2-----2--2-2--2----------------------------------------------------------|
D|---0-----0-----0-------0---0------------------------------------------------------|
A|----------------------------------------------------------------------------------|
E|----------------------------------------------------------------------------------|

e|---3-----3-----3--3--3-3--2--2-2------2--2-2--2------2-----3------------------5----|
B|---3-----3-----3--3--3----3----3--3---3--3-3--3---3--3-3---3------2--2-2------3----|
G|---0-----0-----0-----2----2----2------4--4-4--4------2-----0--0---2--2-2------2----|
D|---0-----------x-----2----0----0------4-------4------0-----0------2----2--2---0----|
A|---x-----------2----------------------2-------2------------x------0----0-----------|
E|---3-------------------------------------------------------3-----------------------|



VERSE (3)

e|--------0-------------------------------------------0------------------------------|
B|------3-----3-3----3--2--2--0-0---0--0-2-3-------3----3-3-----3------2--3----------|
G|----2-------2-2----2--0--0--0-0---0--0---------2------2-2-----2------2--2----------|
D|--0--------------0---------------------------0--------------0-------2---4----------|
A|-------------------------------------------------------------------0--------0------|
E|-------------------------3------3----3---------------------------------------------|

e|-----------------0-------------------------------------------0----------------------|
B|-5----8--------3-----3-3----3--2--2--0-0---0--0-2-3-------3----3-3-----3------2-----|
G|-4----6------2-------2-2----2--0--0--0-0---0--0---------2------2-2-----2------2-----|
D|-5----7----0--------------0---------------------------0--------------0-------2------|
A|---0-----0------------------------------------------------------------------0-------|
E|----------------------------------3------3----3-------------------------------------|

CHORDS BEFORE CHORUS

e|--5--5-5--5-5--5--5---------------------------------------------------------------|
B|--2--2-2--2-2--2------------------------------------------------------------------|
G|--2----2--2-2--2------------------------------------------------------------------|
D|--2----2--2-2--2------------------------------------------------------------------|
A|--0----0--0-0--0------------------------------------------------------------------|
E|----------------------------------------------------------------------------------|


INTRO

VERSE (1) x4

BRIDGE

VERSE (2) x2

CHORUS

BRIDGE

VERSE (2)

CHORUS

VERSE (3) x2

CHORDS BEFORE CHORUS

CHORUS

VERSE (1) or CHORUS EXTENSION

this is my first tab.. sorry if i messed up some places
Tap to rate this tab
# A B C D E F G H I J K L M N O P Q R S T U V W X Y Z