Song name
# A B C D E F G H I J K L M N O P Q R S T U V W X Y Z

The Police - Message In A Bottle tab

Message in a bottle/ The Police

/ = slide

Intro
|---------------------------------------------------
|---------------------------------------------------
|--------6---------2-----------4--------------------
|-----6---------2----------4----------------6/7-----
|--4---------0---------2-----------------4----------
|-----------------------------------2---------------

(This part sounds better with two guitars.)

Bass part

|------------------------------------------------
|------------------------------------------------
|--4--4---0----2--------------------------------
|-------------------2----------------------------


Chorus 
(Palm muted)

|------------------------------------------------
|------------------------------------------------
|--------7-----9---------------------------------
|---7----7-----9---------------------------------
|---7----5-----7---------------------------------
|---5--------------------------------------------

…I’ll send an S.O.S. to the world….


|---------------------------------------------
|---------------------------------------------
|---------------------------------------------
|-----4----------7----------------------------
|-----4----------7----------------------------
|-----2----------5----------------------------

….I hope that someone gets my……

     
Interlude

Db minor                 A major             F#m

|-------4----------------------5-----------------2---------
|-------5----------------------5-----------------2---------
|-------6----------------------6-----------------2---------
|-------6----------------------7-----------------4---------
|-------4----------------------7-----------------4---------
|-------4----------------------5-----------------2---------

……message in a bottle… yeah……….

Bass part

|--------------------------------------------------------
|--------------------------------------------------------
|----4-4-4----4------------------------------------------
|--------------------5-5-5--4-----2----------------------


Comments, suggestions and corrections, send to tavo8625@yahoo.com.mx
Tap to rate this tab
# A B C D E F G H I J K L M N O P Q R S T U V W X Y Z