Song name
# A B C D E F G H I J K L M N O P Q R S T U V W X Y Z

The Police - Walking On The Moon tab

Help us improve GuitareTab! Take a short survey!
-------------------------------------------------------------------------------
			     WALKING ON THE MOON - The Police
-------------------------------------------------------------------------------
Tabbed by: Jatoo
Email: jatoo3@gmail.com

Based largely on the first version by Rob Del Mundo

Tuning: EADGBe

Intro
Guitar II (continues through verse)
e|--3--3---------------------------------------------------------------------|
B|--3--3---------------------------------------------------------------------|
G|--5--5---------------------------------------------------------------------|
D|--3--3---------------------------------------------------------------------|
A|--5--5---------------------------------------------------------------------|
E|---------------------------------------------------------------------------|

Verse
Guitar I
    on the off-beat, reggae style
e|--5-----5-----5-----5-----10-----10-----12-----12--------------------------|
B|--6-----6-----6-----6-----11-----11-----13-----13--------------------------|
G|--5-----5-----5-----5-----10-----10-----12-----12--------------------------|
D|--7-----7-----7-----7-----12-----12-----14-----14--------------------------|
A|---------------------------------------------------------------------------|
E|---------------------------------------------------------------------------|

Bridge
Guitar I
e|--6-----6-----5-----5-----8-----8-----6-----6------------------------------|
B|--6-----6-----6-----6-----8-----8-----8-----8------------------------------|
G|--7-----7-----5-----5-----9-----9-----7-----7------------------------------|
D|--8-----8-----7-----7----10----10-----5-----5------------------------------|
A|---------------------------------------------------------------------------|
E|---------------------------------------------------------------------------|

Guitar II                               don't play the last time
e|--6-----------5-----------8-----------6------------------------------------|
B|--6-----------6-----------8-----------6------------------------------------|
G|--7-----------5-----------9-----------7------------------------------------|
D|--8-----------7----------10-----------8------------------------------------|
A|---------------------------------------------------------------------------|
E|---------------------------------------------------------------------------|

That's pretty much all you need to play the song, the outro is just the same as the verse really.
As for effects, I take the middle channel down on the eq and use a little chorus and reverb.

Feel free to email me with any comments 
===============================================================================
Related for Walking On The Moon tab