Song name
# A B C D E F G H I J K L M N O P Q R S T U V W X Y Z

The Police - Canary In A Coalmine tab

-------------------------------------------------------------------------------
			     Canary in a Coalmine - The Police
-------------------------------------------------------------------------------
Tabbed by:Devil's Child
Email:coolchuck_517 @yahoo.com

Tuning:Standard
    
e|---0--0--0------0-0-0-0-2-4--7--0-0-0------0-0-0-0-2-4-7-4-7--0-0-0-------|
B|------------0--2-----------------------0-2---------------------------0-2---|
G|---------------------------------------------------------------------------|
D|---------------------------------------------------------------------------|
A|---------------------------------------------------------------------------|
E|---------------------------------------------------------------------------|

e|---0-0-0-0-2-3------0-0-0-0-2-0--------------------------------------------|
B|---------------0-2---------------------------------------------------------|
G|---------------------------------------------------------------------------|
D|---------------------------------------------------------------------------|
A|---------------------------------------------------------------------------|
E|---------------------------------------------------------------------------|

This song has variations of this part at the end that I haven't figured out
yet, but this is basically the whole song.

| /  slide up
| \  slide down
| h  hammer-on
| p  pull-off
| ~  vibrato
| +  harmonic
| x  Mute note
===============================================================================
Tap to rate this tab
 
# A B C D E F G H I J K L M N O P Q R S T U V W X Y Z