Song name
# A B C D E F G H I J K L M N O P Q R S T U V W X Y Z

The Police - Message In A Bottle Acoustic tab

Just to let you know this version is taken from The Underground Heroes Cover of this 
that they did for ROCKWORLD.TV

Intro/Main Riff/Verse

e|---------------------------------------------------------------------------|
B|-----------------------4-4-4-4---------------------------------------------|
G|--6-6-6---------4-4-4--4-4-4-4---------------------------------------------|
D|--6-6-6--7-7-7--4-4-4--2-2-2-2---------------------------------------------|
A|--4-4-4--7-7-7--2-2-2------------------------------------------------------|
E|---------5-5-5-------------------------------------------------------------|

     Just A Castaway, On An Island Lost At Sea...........

Bridge

e|---------------------------------------------------------------------------|
B|---------------------------------------------------------------------------|
G|-------------------7-7-7--9--9-9-------------------------------------------|  X2
D|--7-7-7-7-7-7-7-7--7-7-7--9--9-9-------------------------------------------|
A|--7-7-7-7-7-7-7-7--5-5-5--7--7-7-------------------------------------------|
E|--5-5-5-5-5-5-5-5----------------------------------------------------------|

    I'll Send My SOS to The World...

e|---------------------------------------------------------------------------|
B|---------------------------------------------------------------------------|
G|------------------7-7-7-7-7-7-7-7------------------------------------------|  X2
D|-4-4-4-4-4-4-4-4--7-7-7-7-7-7-7-7------------------------------------------|
A|-4-4-4-4-4-4-4-4--5-5-5-5-5-5-5-5------------------------------------------|
E|-2-2-2-2-2-2-2-2-----------------------------------------------------------|

   I Hope That Someone Gets My.......

Breakdown

e|---------------------------------------------------------------------------|
B|---------------------------------------------------------------------------|
G|-6-----------------------------6-------------------------------------------|
D|-6---------7---------6---------6---------7----------6-------4--------------|
A|-4---------7---------6---------4---------7----------6-------4--------------|
E|-----------5---------4-------------------5----------4-------2--------------|

   Message In A Bottle.......

Thats About It Really.....This is my first tab so please rate it!! Thanks !!!!
Tap to rate this tab
# A B C D E F G H I J K L M N O P Q R S T U V W X Y Z