Song name
# A B C D E F G H I J K L M N O P Q R S T U V W X Y Z

The Police - Synchronicity 2 tab

Transcribed by observing Andy's exact finger positioning in the 1983 
Synchronicity Concert DVD, using the 'Andy Cam' which focuses on Andy 
for the entire song.   As you could imagine, this is as accurate as it 
gets.

Guitar: Fender Telecaster.
Effects: Chorus, Reverb, slight Flanger, Light Distortion.


INTRO  
[Andy plays this part finger-style]
                                                                           6x
E||--------------------------------------|---------------------------------||
B||---12p--10-------12p--10-------12h----|--10----------12p--10--12p--10---||
G||*---9----9--------9----9--------9-----|---9-----------9----9---9----9--*||
D||*--11---11-------11---11-------11-----|--11----------11---11--11---11--*||
A||------------(9)-----------(9)---------|---------(9)---------------------||
E||--------------------------------------|---------------------------------||

   
-------------------------------------|---------------------------||
--12p--10-------12p--10-------12h----|--10-----------------------||
---9----9--------9----9--------9-----|---9-----7--7--------------||
--11---11-------11---11-------11-----|--11-----------7--7~-------||
-----------(9)-----------(9)---------|---------------------------||
-------------------------------------|---------------------------||


VERSE
[Played with pick]
  
E||-------------------------|-----------------------|----------------------|
B||-------------------------|-----------------------|----------------------|
G||*------------------------|-----------------------|----------------------|
D||*----------7~------------|----------7~-----------|--9--9--9--9--7-----9-|
A||---0------------------0--|--4--------------------|----------------------|
E||-------------------------|-----------------------|----------------------|

                           4x
---------------------------||
---------------------------||
--------------------------*||
--9--9--9--9--7--7~-------*||
---------------------------||
---------------------------||


PRE-CHORUS

   PM--------------------------------------------------- 
                                                         3x
E||---------------------------|--------------------------||
B||---------------6--6--------|--------------6--6--------||
G||*--------5--5--------5--5--|--------4--4--------4--4--||
D||*--0--0--------------------|--0--0--------------------||
A||---------------------------|--------------------------||
E||---------------------------|--------------------------||



--------------------------|-------------------------|
-----7--7--7--7--9-----7--|-----7--7--7--7--9-------|
-----7--7--7--7--9-----7--|-----7--7--7--7--9-------|
-----7--7--7--7--9-----7--|-----7--7--7--7--9-------|
--7-----------------------|-------------------------|
--0-----------------------|-------------------------|


CHORUS

PM---------------------------

E||--------------------------|
B||--------------------------|
G||-----4--------4--------5--|
D||--------2--------2--------|
A||--0--------0--------0-----|
E||--------------------------|


PM---------------------------------------------------

--------------------------|--------------------------|
-----------------------0--|-----0--------0--------3--|
-----5--------5-----------|--------0--------0--------|
--------3--------3--------|-----------0--------0-----|
--0--------0--------0-----|--0-----------------------|
--------------------------|--------------------------|


PM-----------------------------------------------------

--------------------------|----------------------------|
-----3--------3-----------|----------------------------|
--------2--------2--------|-------1--------1-----------|
-----------3--------3-----|----------2--------2--------|
--------------------------|-------------2--------2-----|
--1--------------------0--|--(0)--------------------0--|


PM-------------------------------------------------------

----------------------------|----------------------------|
----------------------------|----------------------------|
-------2--------2-----------|-------1--------1-----------|
----------3--------3--------|----------2--------2--------|
-------------3--------3-----|-------------2--------2-----|
--(0)--------------------0--|--(0)--------------------0--|

     
-------------------------||
-------------------------||
-----7--7----------------||
-----------7--7~---------||
-------------------------||
-------------------------||


OUTRO
  
E||-----------0-----------|----------0-----------|----------0--------|
B||-----------0-----------|----------0-----------|----------0--------|
G||*-----1----------------|-----2----------------|-----4-------------|
D||*-----2----------------|-----3----------------|-----5-------------|
A||------2----------------|-----3----------------|-----5-------------|
E||------0----------------|----------------------|-------------------|


                   fades out...    
                                 5x
----------0----------------------||
-----6----6----------------------||
-----5--------------------------*||
-----7--------------------------*||
---------------------------------||
---------------------------------||

Tap to rate this tab
 
# A B C D E F G H I J K L M N O P Q R S T U V W X Y Z