Song name
# A B C D E F G H I J K L M N O P Q R S T U V W X Y Z

The Police - Every Breath You Take Acoustic tab

This is my own interpretation of a cover I saw for the acoustic guitar. My first 
interpretation and my first tab so please be kind :)

e|---------------------------------(Play---------|
B|-----------------0-----------------Through-----|
G|-----------2---------2-------2---------Twice)--|
D|-------0------3---------3----------------------|
A|-----------------------------------------------|
E|---3-------------------------------------------|


e|----------------------------------(Play---------|
B|------------------------------------Through-----|
G|-----------------0----------------------Twice)--|
D|----------4----------4--------4-----------------|
A|------2-------2-----------2---------------------|
E|--0---------------------------------------------|


e|-------------------------------0----------------|
B|-------3-----1---------1----------2-----2-------|
G|----0-----------0------------3------3-----------|
D|---------------------------0----0-----0---------|
A|--3-------3--------3----------------------------|
E|------------------------------------------------|


e|----------------------------------(Play---------|
B|------------------------------------Through-----|
G|-----------------0----------------------Twice)--|
D|----------4----------4--------4-----------------|
A|------2-------2-----------2---------------------|
E|--0---------------------------------------------|


And thats all she wrote. Give it a rate and leave a comment. I havent worked out the 
chords to go with it, but this works all the way through the song with just lyrics on top 
if it. Thanks (:
Tap to rate this tab
# A B C D E F G H I J K L M N O P Q R S T U V W X Y Z