Song name
# A B C D E F G H I J K L M N O P Q R S T U V W X Y Z

The Police - I Dont Wanna Lose Your Love Tonight tab

Song: I Don't Wanna Lose Your Love Tonight
Band: The Police

-----

Intro/Verses/Main riff:
e|-------------------------------------------------------------------|
B|-------------------------------------------------------------------|
G|--9-----9-----9---6-----6-----6---4-----4-----4---4-----4-----4----|
D|--9-x-x-9-x-x-9-x-6-x-x-6-x-x-6-x-4-x-x-4-x-x-4-x-4-x-x-4-x-x-4-x--| x2
A|--7-x-x-7-x-x-7-x-4-x-x-4-x-x-4-x-2-x-x-2-x-x-2-x-2-x-x-2-x-x-2-x--|
E|-------------------------------------------------------------------|

e|-------------------------------------------------------------------|
B|-------------------------------------------------------------------|
G|--2-----2-----2---6-----6-----6---4-----4-----4---4-----4-----4----|
D|--2-x-x-2-x-x-2-x-6-x-x-6-x-x-6-x-4-x-x-4-x-x-4-x-4-x-x-4-x-x-4-x--|
A|--0-x-x-0-x-x-0-x-4-x-x-4-x-x-4-x-2-x-x-2-x-x-2-x-2-x-x-2-x-x-2-x--|
E|-------------------------------------------------------------------|

e|-------------------------------------------------------------------|
B|-------------------------------------------------------------------|
G|--6-----6-----6---6-----6-----6---4-----4-----4---4-----4-----4----|
D|--6-x-x-6-x-x-6-x-6-x-x-6-x-x-6-x-4-x-x-4-x-x-4-x-4-x-x-4-x-x-4-x--|
A|--4-x-x-4-x-x-4-x-4-x-x-4-x-x-4-x-2-x-x-2-x-x-2-x-2-x-x-2-x-x-2-x--|
E|-------------------------------------------------------------------|


Little guitar fill (0:59):
e|-------------------------------------------------------------------|
B|-------------------------------------------------------------------|
G|-------------------------------------------------------------------|
D|--------2----------------5-4-2-4--------2----------------5-4-2-4---|
A|--2-4-5---5-4-0-0h2--4-5---------5--4-5---5-4-0-0h2--4-5---------5-|
E|-------------------------------------------------------------------|


Riff played during outro (repeat):      Then sometimes add this at the end:
e|----------7-7--------------7-7------|--7-----7-----7-----7-----7-----7------|
B|--7-7-5-5-----5-5--7-7-5-5-----5-5--|----7-5---7-5---7-5---7-5---7-5---7-5--|
G|------------------------------------|---------------------------------------|
D|------------------------------------|---------------------------------------|
A|------------------------------------|---------------------------------------|
E|------------------------------------|---------------------------------------|

Not 100% accurate, but everything fits with the song so enjoy playing!
Tap to rate this tab
# A B C D E F G H I J K L M N O P Q R S T U V W X Y Z