Song name
# A B C D E F G H I J K L M N O P Q R S T U V W X Y Z

The Police - Demolition Man tab

Demolition Man

By Sting/The Police

This awesome song is actually played on bass while the guitar jams in the background.
This is the bassline arranged for guitar.

My Amp Settings:

Gain: 4
Bass: 10
Middle: 4
Treble: 10

I play it on a 'Gibson Les Paul'. Sounds good when you use your Bridge pickup en turn tone to 0.

e------------------------------|
B------------------------------|
G-------------------------5/6--|
D---5-7------5-7------5-7------|
A-7--------7--------7----------|
E------------------------------|

e--------------------------------|
B--------------------------------|
G--------------------------------|
D---5-(5)-7-----5-7--------------|
A-7-----------7--------0-3-5-0/--|
E--------------------------------|

I guess it's pretty accurate, hope you like it :D
Tap to rate this tab
# A B C D E F G H I J K L M N O P Q R S T U V W X Y Z