Song name
# A B C D E F G H I J K L M N O P Q R S T U V W X Y Z

The Police - Lowlife tab

Tabbed by: Belavista Man
Edited On: 03/04/07
Email: anthonybentley@hotmail.com

   A             F#m          G             Dsus2
e|-------------------------------------------------------------------------|
B|-------14-----------10------------12------------5------------------------|
G|-----14--14-------11--11--------12--12--------7---7----------------------|
D|---14------14---11------11----12------12----7-------7--------------------|
A|-12------------9------------10------------5------------------------------|
E|-------------------------------------------------------------------------|

Play this twice and then play:
   A             F#m          G            Dsus2
e|-------------------------------------------------------------------------|
B|-----------------------------------------------5-------------------------|
G|-------6-------------2------------4----------7---7-----------------------|
D|-----7----7--------4---4--------5---5------7-------7---------------------|
A|---7--------7----4-------4----5-------5--5-------------------------------|
E|-5-------------2------------3--------------------------------------------|

And then finally play:
   F#m          E             G A
e|----------------------------3-5------------------------------------------|
B|----------------------------3-5------------------------------------------|
G|-------2------------1-------4-6------------------------------------------|
D|-----4---4--------2---2-----5-7------------------------------------------|
A|---4-------4----2-------2---5-7------------------------------------------|
E|-2------------0-------------3-5------------------------------------------|
Tap to rate this tab
# A B C D E F G H I J K L M N O P Q R S T U V W X Y Z