The Pollywogs - I Want It tab

The Pollywogs_ I want it
Dirty words and dirty sex

(Tabbed by Daniel Kayser Leverkusen,13.06.11
DanielKay@web.de) 

Intro 4x 

e|33-x-xx-33-x-xx-33-x6x6x6-8-8-x-xx-8-8-x-xx-8-8--x6x6x------------------|
B|33-x-xx-33-x-xx-33-x6x6x6-8-8-x-xx-8-8-x-xx-8-8--x8x8x------------------|
G|44-x-xx-44-x-xx-44-x7x7x7-9-9-x-xx-9-9-x-xx-9-9--x8x8x------------------|
D|55-x-xx-55-x-xx-55-x8x8x8-1010x-xx-1010x-xx-1010-x8x8x------------------|
A|55-x-xx-55-x-xx-55-x8x8x8-1010x-xx-1010x-xx-1010-x6x6x------------------|
E|33-x-xx-33-x-xx-33-x6x6x6-8-8-x-xx-8-8-x-xx-8-8--x6x6x------------------|

Verse 8x (listen to the song for the Rhythm)

Always Fighting 
Always Fighting with you
but when you you didnít asked me to
You you didnít understand

e|-3-----6----6---1--------------------------------------------------------|
B|-3-----6----6---1--------------------------------------------------------|
G|(4)---(7)--(6)-(2)-------------------------------------------------------|
D|-5-----8----7---3--------------------------------------------------------| 
A|-5-----8----7---3--------------------------------------------------------|
E|-3-----6----5---1--------------------------------------------------------|


Chorus 2x

Cause 
I want it, I want it no more, no more
I want it, I want no more 


e|-6-------3------6----6---5---------------------------------------------|
B|-8-------3------8----6---7---------------------------------------------|
G|-8-------4------8----7---7---------------------------------------------|
D|-8-------5------8----8---7---------------------------------------------| 
A|-6-------5------6----8---5---------------------------------------------|
E|-6-------3------6----6---5---------------------------------------------|

e|33-x-xx-33-x-xx-33-x6x6x6-8-8-x-xx-8-8-x-xx-8-8--x6x6x------------------|
B|33-x-xx-33-x-xx-33-x6x6x6-8-8-x-xx-8-8-x-xx-8-8--x8x8x------------------|
G|44-x-xx-44-x-xx-44-x7x7x7-9-9-x-xx-9-9-x-xx-9-9--x8x8x------------------|
D|55-x-xx-55-x-xx-55-x8x8x8-1010x-xx-1010x-xx-1010-x8x8x------------------|
A|55-x-xx-55-x-xx-55-x8x8x8-1010x-xx-1010x-xx-1010-x6x6x------------------|
E|33-x-xx-33-x-xx-33-x6x6x6-8-8-x-xx-8-8-x-xx-8-8--x6x6x------------------|


Verse 8x

Always lying
Always lying to you
But than you you dinít tell me to
You you didnít understand

e|-3-----6----6---1--------------------------------------------------------|
B|-3-----6----6---1--------------------------------------------------------|
G|(4)---(7)--(6)-(2)-------------------------------------------------------|
D|-5-----8----7---3--------------------------------------------------------| 
A|-5-----8----7---3--------------------------------------------------------|
E|-3-----6----5---1--------------------------------------------------------|


Chorus 2x

Cause 
I want it, I want it no more, no more
I want it, I want no more 

e|-6-------3------6----6---5---------------------------------------------|
B|-8-------3------8----6---7---------------------------------------------|
G|-8-------4------8----7---7---------------------------------------------|
D|-8-------5------8----8---7---------------------------------------------| 
A|-6-------5------6----8---5---------------------------------------------|
E|-6-------3------6----6---5---------------------------------------------|


Solo

Sorry I don't figured it out.. please send it to me if somebody know it :-)

Chorus 2x 

Cause 
I want it, I want it no more, no more
I want it, I want no more 

e|-6-------3------6----6---5---------------------------------------------|
B|-8-------3------8----6---7---------------------------------------------|
G|-8-------4------8----7---7---------------------------------------------|
D|-8-------5------8----8---7---------------------------------------------| 
A|-6-------5------6----8---5---------------------------------------------|
E|-6-------3------6----6---5---------------------------------------------|


Outro
e|---------3-------------------------------------------------------------|
B|---------3-------------------------------------------------------------|
G|---------4-------------------------------------------------------------|
D|---------5-------------------------------------------------------------| 
A|---------5-------------------------------------------------------------|
E|---------3-------------------------------------------------------------|


have fun, I hope you'll like it. I'm not sure with the Lyrics.
Check also out this: 
http://www.youtube.com/watch?v=9QKpeA5AqsM&feature=related
I love Pollywogs!
THEY ARE GOING TO ROCK
DanielKay@web.de
Tap to rate this tab
 
# A B C D E F G H I J K L M N O P Q R S T U V W X Y Z