The Poodles - Night Of Passion tab

----------------------------------------------------------------------------
			     Night of Passion - The Poodles
----------------------------------------------------------------------------
Tabbed by: Xanzan

Tuning: Standard (EADGBe)


Intro (and main riff)
e|------------------------------------------------------------------------|
B|---------12-----------------------------12------------------------------|
G|------------------------------------------------------------------------|
D|---/14-------14--13--14-----------/14--------14--13--14--16-------------|
A|-------------------------14---------------------------------------------|
E|------------------------------------------------------------------------|

Rest of the song goes by the power chords 
(in the verses you just strum a pm C#5 chord) 
and for the pitch change in the end just move everything up 2 steps

     C#5          G#5       A5     B5
e|----------------------------------------------------------------|
B|----------------------------------------------------------------|
G|-------(6)------------------------------------------------------|
D|----11-(6)------6--------7------9-------------------------------|
A|----11-(4)------6--------7------9-------------------------------|
E|----9-----------4--------5------7-------------------------------|

In the beginning you change between C#5 and A5 twice 
(the second time you add an B5) listen to the song for rythm


My heart is screaming out your name

Night falls, my mind recalls the sound of your heart breathing
Thoughts of your thousand kisses burning on my skin

I feel your desire as the moonlight lingers in the sky
I'm walking trough fire, can't you hear me when I cry

refrain:
One night of passion, one night of hunger
And my attraction is getting stronger
I need to feel you, I need to hold you
I can't deny 'cause my heart is screaming out your name

My heart is screaming out your name

Tonight I won't be alone, doesn't mean that I'm not lonely
One minute is like an hour until you calm my pain

I feel your desire as the moonlight lingers in the sky
I walking trough fire, can't you hear me when I cry

refrain

My heart is screaming out your name

Every time you're not around
You're a thought within my mind
Hold me near, never fear
I'm right beside

refrain x2 (pitch change)
Tap to rate this tab
 
# A B C D E F G H I J K L M N O P Q R S T U V W X Y Z