Song name
# A B C D E F G H I J K L M N O P Q R S T U V W X Y Z

The Postman Syndrome - Lonely In Your Arms tab

clean electric intro

-----0-----0-----0-----0---0---0---|
---0-----0-----0-----0-------------|
-2-----4-----5-----7-----9---7-----|
-----------------------------------|
-----------------------------------|
-----------------------------------|

at around 5:15 where the clean electric riff picks up, it is played this way

-----0-----0-----0-----0---0----0-----0-----0-----0-----0---0-----0-----|
---0-----0-----0-----0--------------0-----0-----0-----0---------0-------|
-2-----4-----5-----7-----9---10---2-----4-----5-----4-----2---1---------|
------------------------------------------------------------------------|
------------------------------------------------------------------------|
------------------------------------------------------------------------|

which repeats itself until the end which goes like this

-----0-----0-----0-----0----12-----0------0-------0-----0-----0---|
---0-----0-----0-----0----10-----0------0-------0-----0-----0-----|
-2-----4-----5-----7-----9-----12-----10------9-----7-----5-------|
------------------------------------------------------------------|
------------------------------------------------------------------|
------------------------------------------------------------------|

i am currently working on the rest of the song so give me a while :D
Tap to rate this tab
# A B C D E F G H I J K L M N O P Q R S T U V W X Y Z