Song name
# A B C D E F G H I J K L M N O P Q R S T U V W X Y Z

The Predators - Live Drive tab

Intro:
e--------------------------------------------------------|
B--------------------------------------------------------|
G-7-7--7----------5-5--5--------------------------7-7--7-|
D-7-7--7--7-7--7--5-5--5--5-5--5--8-8--8--7-7--7--7-7--7-|
A-5-5--5--7-7--7--3-3--3--5-5--5--8-8--8--7-7--7--5-5--5-|
E---------5-5--5----------3-5--3--6-6--6--5-5--5---------|x2 end on G power chord
    Palm mute first two chords of every trio

Verse:
e---------------|
B---------------|
G-7---5-------7-|
D-7-7-5-5-8-7-7-|
A-5-7-3-5-8-7-5-|
E---5---3-6-5---|  play each note 4x Palm mute when singing starts

Chorus:
e---------------------------------------------------------------------|
B---------------------------------------------------------------------|
G-7-7-7-7-7-7-7-7-----------------------------------------------------|
D-7-7-7-7-7-7-7-7-7-7-7-7-7-7-7-7-10-10-10-10-8-8-8-8-7-7-7-7-7-7-7-7-|
A-5-5-5-5-5-5-5-5-7-7-7-7-7-7-7-7-10-10-10-10-8-8-8-8-7-7-7-7-7-7-7-7-|
E-----------------5-5-5-5-5-5-5-5--8--8--8--8-6-6-6-6-5-5-5-5-5-5-5-5-| x2

Post Chorus:
e---------------------------------------------------------------------------|
B---------------------------------------------------------------------------|
G-7-7-7-7---------5-5-5-5---------------------------------------7-----------|
D---------7-7-7-7---------5-5-5-5-8-8-8-8-7-7-7-7-4-7-5-7-5-7-5---8-8-11-11-|
A-5-5-5-5---------3-3-3-3---------------------------------------5-----------|
E---------5-5-5-5---------3-3-3-3-6-6-6-6-5-5-5-5-2-5-3-5-3-5-3---6-6--9--9-|

e----
B----
G----
D-12-
A----
E-10-

Verse (Palm muted)
Chorus

Bridge 1:
e-------------------------------|
B-------------------------------|
G-10-10-9-7-------5-5-6-7-------|
D-10-10-9-7-drums-5-5-6-7-drums-|
A-8--8--7-5-------3-3-4-5-------|
E-------------------------------| x2

Bridge 2:
e------------------------------------------------------|
B------------------------------------------------------|
G---------------------------------------7--------------|
D-4-4-7-7-4-4-7-7-4-4-7-7-4-7-5-7-5-7-5---8-8-11-11-12-|
A---------------------------------------5--------------|
E-2-2-5-5-2-2-5-5-2-2-5-5-2-5-3-5-3-5-3---6-6--9--9-10-|

Chorus x4
Verse x2

end on:
e---
B---
G-7-
D-7-
A-5-
E-5-

There you go
Tap to rate this tab
# A B C D E F G H I J K L M N O P Q R S T U V W X Y Z