Song name
# A B C D E F G H I J K L M N O P Q R S T U V W X Y Z

The Predators - Bakuon Drop tab

Intro and playedd throught most of the song

----------------------------------------------------------------------|
----------------------------------------------------------------------|
-----------------------------7-7-7-7----------------------------------|
-----------------------------5-5-5-5----------------------------------|
-7-7-7-7---4-4-4-4---7-7-7-7------------------------------------------|
-5-5-5-5---2-2-2-2---5-5-5-5------------------------------------------|
 A5      c/flat5  A5       D5


chords before chorus

/-----/
/----1/
/-1---/
/-2--2/
/-2---/
/-----/

bridge

-----------------------------------------------------------------------|
-----------------------------------------------------------------------|
-----------------------------------------------------------------------|
-----------------------------------------------------------------------|
--------------------------------4/-------------------------------------|
-2--8--5--10--2--8/7--5--10/9---2/-------------------------------------|

then repete intro.

this is my first tab so... if theres some mistakes email me at

colorquest123@yahoo.com
Tap to rate this tab
 
# A B C D E F G H I J K L M N O P Q R S T U V W X Y Z