Song name
# A B C D E F G H I J K L M N O P Q R S T U V W X Y Z

The Pretenders - Kid tab

Preferably played on a tele :)


|--2h-4p2p0-------0-------0-----0-------0-----0-----0-----0-----0-----|
|-----------0-------4-------4-----4-------4-----4-----0-----0-----0---|
|-------------2s4-----4s6-----6-----6-2-----2-----2-----2-----2-----2-|
|---------------------------------------------------------------------|
|---------------------------------------------------------------------|
|---------------------------------------------------------------------|

|----------------------------------------------------------------------------|
|---------------------------5--7p57b(9)r(7)5---------------------------------|
|--1b2r1------------------4------------------6-4----------4------------------|
|--------2-----2-2--2-4s6------------------------s4-2-4s6---s4-2-------------|
|----------2s4---------------------------------------------------4-2---------|
|--------------------------------------------------------------------2b3r2-0-|
Tap to rate this tab
# A B C D E F G H I J K L M N O P Q R S T U V W X Y Z