Song name
# A B C D E F G H I J K L M N O P Q R S T U V W X Y Z

The Pretty Reckless - Make Me Wanna Die tab

Hey people, kickass song to play, this is my first tab so please rate n let me know how i'm doin.
The synth bits been tabbed for guitar and noted as guitar 1 so enjoy!

INTRO
Guitar 1:
|-------------------------------------------------------------------------[
|--9----9---------------------11----9----9----------------------9---------[
|----10---9-10----12----13------------10---9-10----8----6---------10------[
|--------------10----10----10----10-------------10---10---8/10------------[
|-------------------------------------------------------------------------[
|-------------------------------------------------------------------------[


Guitar 2:
0:17 SECS
|-----------------------------------------------------------------|
|-----------------------------------------------------------------|
|-----------------------------------------------------------------|
|------1~------------3~------6--------10b11-----------------3-----|
|------1~------------3~------6--------10b11-----------------3-----|
|------1~------------3~------6--------10b11-----------------3-----|

Guitar 1:
0:23 SECS
|------------------|
|------------------|
|--10-10---10-10---|
|------------------| X12   Guitar 2 rakes the strings throughout until the
|--8--8----8--8----|       riff
|------------------|

Guitar 2:
0:26 SECS
|----------------------------|
|----------------------------|
|----------------------------|
|--6---------8b9------3------| play this riff again after 7 beats (play actual
|--6---------8b9------3------| riff 4 times)then palm mute the strings at the
|--6---------8b9------3------|  third fret to get the bassy sound

Verse:
Guitar 1:
(while guitar 2 palm mutes the strings)
|------------------------------------------------------------------|
|------------------------------------------------------------------|
|--10---------13-------------8-------------7---------------6-------|
|--------x8------------x8----------x8--------------x8----------x8--|
|--8----------11-------------6-------------5---------------4-------|
|------------------------------------------------------------------|
Take me Im alive...
|------------------------|
|------------------------|
|--5---------------------|
|-------x16--------------|
|--3---------------------|
|------------------------|

Guitar 2
(building up as you play)
|-------------------------------|
|-------------------------------|
|-------------------------------|
|--10--------------3------------|
|--10---x16--------3------------|
|--10--------------3------------|
 when sun goes down...

Guitar 1
(while guitar 2 rakes the strings)
-------------------------------------------------------------------|
-------------------------------------------------------------------|
--10---------13-------------8-------------7---------------6--------|
--------x8------------x8----------x8--------------x8----------x8---|
--8----------11-------------6-------------5---------------4--------|
-------------------------------------------------------------------|
I had everything...
|------------------------|
|------------------------|
|--5---------------------|
|-------x16--------------|
|--3---------------------|
|------------------------|

Guitar 2
(building up as you play)
|----------------------------|
|----------------------------|
|----------------------------|
|--10------------------------|
|--10---x16------------------|
|--10------------------------|
And I could belong to the night.

Pre Chorus
(still Guitar 2)
|-------------------------------------------------[
|--9----9---------------------11--------9----9----[
|----10---9-10----12----13----------------10---12-[
|--------------10----10----10----10---------------[
|-------------------------------------------------[
|-------------------------------------------------[
Your eyes, your eyes...

Guitar 1 plays:
|------------------------4----6---------------------[
|---------------6---8-------------------------------[
|--6-----5-----------------------------6-----5====--[
|---------------------------------------------------[
|---------------------------------------------------[
|---------------------------------------------------[

Chorus
Both Guitars
|-----------------------------------------------------------------|
|-----------------------------------------------------------------|
|-----------------------------------------------------------------|
|-----3---------------6------------------8-----------10-----------|
|-----3----x20--------6--------x20-------8---x20-----10---x20-----|
|-----3---------------6------------------8-----------10-----------|

|---------------------------------------------------------------|
|---------------------------------------------------------------|
|---------------------------------------------------------------|
|-------11----------13---------15----------13---------------8---|
|-------11---x8-----13---x8----15----x8----13----x8---------8---|==(sustain)
|-------11----------13---------15----------13---------------8---|

Guitar 2
|---------------------|
|---------------------|
|---------------------|
|-----10-8-6-5--------|
|-----10-8-6-5--------|
|-----10-8-6-5--------|

back to verse

|------------------------------------|
|------------------------------------| palm mute accordingly
|------------------------------------|
|--3xxxxxx 6---------8b9------3------|
|--3xxxxxx 6---------8b9------3------|
|--3xxxxxx 6---------8b9------3------|

it's pretty much a repeat from here on until you get to the bridge but i'll work that 
n post it later, enjoy!
Tap to rate this tab
# A B C D E F G H I J K L M N O P Q R S T U V W X Y Z