Song name
# A B C D E F G H I J K L M N O P Q R S T U V W X Y Z

The Pretty Reckless - He Loves You tab

Intro + Verse ( damped )

-0-0-------------------------------|
-0-0-------------------------------|
-0-0-------------------------------|
-2-2-----7--7-----5-5----4-4-------|
-2-2-----7--7-----5-5----4-4-------|
---------5--5-----3-3----2-2-------|    3x
Em



-----------------------------------|
-----------------------------------|
-----------------------------------|
-5-5-5-5-----9-10-9-10-9-----------|
-5-5-5-5-----9-10-9-10-9-----------|
-3-3-3-3-----7-8--7-8--7-----------|


Chorus

-0-0-0-0------0-0-0-0-----------------------------|
-0-0-0-0------3-3-3-3-----------------------------|
-1-1-1-1------2-2-2-2-----------------------------|
-2-2-2-2----------------7-7-7-7------9-9-9-9------|
-2-2-2-2----------------7-7-7-7------9-9-9-9------|
------------------------5-5-5-5------7-7-7-7------|


----------------------------------|
----------------------------------|
----------------------------------|
-10-10--10-10-----12-12-----13-13-|
-10-10--10-10-----12-12-----13-13-|
-8--8---8--8------10-10-----11-11-|
Tap to rate this tab
 
# A B C D E F G H I J K L M N O P Q R S T U V W X Y Z