Song name
# A B C D E F G H I J K L M N O P Q R S T U V W X Y Z

The Pretty Reckless - Make Me Wanna Die tab

Band: The Pretty Reckless
Song: Make Me Wanna Die
Transcribed By: GNR87roxs

Tuning: Half step down, (Eb,Bb,Gb,Db,Ab,Eb)---> High to low

Intro:
Eb|-------------|--------------------|
Bb|-------------|--------------------|
Gb|-------2--5--|-------2--4/5/4-----|
Db|-2--4--2--5--|-2--4--2--4/5/4--4--|
Ab|-2--4--0--3--|-2--4--0--2/3/2--4--|
Eb|-0--2--------|-0--2------------2--|

Pre-verse: Palm Mute the first chord of every bar.
Eb|-----------------|-------------|-----------------|
Bb|-----------------|-------------|-----------------|
Gb|----2--4/5/4-----|----2--5-----|----2--4/5/4-----|
Db|-4--2--4/5/4--4--|-4--2--5--4--|-4--2--4/5/4--4--|
Ab|-4--0--2/3/2--4--|-4--0--3--4--|-4--0--2/3/2--4--|
Eb|-2------------2--|-2--------2--|-2------------2--|

Verse:
E|-----------------------------------------------------------------------|
B|-----------------------------------------------------------------------|
G|--------------------x-x-x-9--x-x-x-9--x-x-x-7--x-x-x-7--6--4-----------|
D|-4-x-x-x-4-x-x-x-7--x-x-x-9--x-x-x-9--x-x-x-7--x-x-x-7--6--4--7--6--4--|
A|-4-x-x-x-4-x-x-x-7--x-x-x-7--x-x-x-6--x-x-x-5--x-x-x-4--4--2--7--6--4--|
E|-2-x-x-x-2-x-x-x-5--------------------------------------------5--4--2--|

Pre Chorus: You dont have to play it. Its just optional if you want to.
Eb|-------------------|-------------------|
Bb|-------------------|-------------------|
Gb|-7--6--------------|-7--6--------------|
Db|-7--6--4--6--7--9--|-7--6--4--6--7--9--|
Ab|-5--4--4--6--7--9--|-5--4--4--6--7--9--|
Eb|-------2--4--5--7--|-------2--4--5--7--|

Chorus:
Eb|-------------------|-------------------------|
Bb|-------------------|-------------------------|
Gb|----2--4--6--7--9--|-------4--6--4-----------|
Db|-4--2--4--6--7--9--|-4--2--4--6--4--7--6--4--|
Ab|-4--0--2--4--5--7--|-4--2--2--4--2--7--6--4--|
Eb|-2-----------------|-2--0-----------5--4--2--|

If you want to make up a solo with the bridge of the song is playing improvise in F# 
Pentatonic minor if you want! Enjoy!

Song's Base
Intro 1x
Pre-verse 1x
Verse 2x
Pre-Chorus 2x
Chorus 1x
Pre-verse1x
Verse2 2x
Pre-chorus 2x
Chorus 1x
Tap to rate this tab
 
# A B C D E F G H I J K L M N O P Q R S T U V W X Y Z