Song name
# A B C D E F G H I J K L M N O P Q R S T U V W X Y Z

The Pretty Reckless - Make Me Wanna Die tab

this is best played with my bass tab for this song


[Intro]
e|---------------------------------------------------------------------|
B|-9--9----8-9-11-9--9----------9--------------------------------------|
G|--10-9-10--------10-9-10-8-6-5-10------------------------------------|
D|----------------------------------1-3-6-9-333-333-333-333-333-336-9--|
A|----------------------------------1-3-6-9-333-333-333-333-333-336-9--|
D|----------------------------------1-3-6-9-333-333-333-333-333-336-9--|

[verse]
e|-------------------------------------------------------------------------|
B|-------------------------------------------------------------------------|
G|---------------8888---7777---6666---5555---------------------------------|
D|-33333--66666--8888---7777---6666---5555---10--8--6--5-------------------|
A|-33333--66666--6666---5555---4444---3333---10--8--6--5-------------------|
D|-33333--66666------------------------------10--8--6--5-------------------|
  Take   I'm    never  wicked every better  sun goes down

[Take me, I'm alive, never was a girl with a wicked mind, but everything looks better 
when the sun goes down]

e|------------------------------------------------------------|
B|------------------------------------------------------------|
G|-------------8888---7777---6666---5555--55555555------------|
D|-3333--6666--8888---7777---6666---5555--55555555------------|
A|-3333--6666--6666---5555---4444---3333--33333333------------|
D|-3333--6666-------------------------------------------------|
  I     every oppor  etern  I    belong tothe night

[I had everything, opportunities for eternity, and I could belong to the night]


e|------------------------------------------------------------|
B|-9--9----8-9-11-9--9----------------------------------------|
G|--10-9-10--------10-9---------------------------------------|
D|------------------------------------------------------------|
A|------------------------------------------------------------|
D|------------------------------------------------------------|

[your eyes, your eyes, I can see in your eyes, your eyes]

NC
[You make me wanna die]

[Chorus]
e|------------------------------------------------------------------------|
B|------------------------------------------------------------------------|
G|-------------------------------------------------55-5555-55-5555--------|
D|-33-3333-33-3333-66-6666-66-6666-88-8888-88-8888-55-5555-55-5555--------|
A|-33-3333-33-3333-66-6666-66-6666-88-8888-88-8888-33-3333-33-3333--------|
D|-33-3333-33-3333-66-6666-66-6666-88-8888-88-8888------------------------|
  I'll             enough          die             Love
e|-------------------------------------------------------------------|
B|-------------------------------------------------------------------|
G|-66-6666-88-8888-1010-10101010-88-8888-----------------------------|
D|-66-6666-88-8888-1010-10101010-88-8888-88-8888-8-8-8-8--10-8-6-5---|
A|-44-4444-66-6666-8-8--8-8-8-8--66-6666-88-8888-8-8-8-8--10-8-6-5---|
D|---------------------------------------88-8888-8-8-8-8--10-8-6-5---|
   light   look   inside         e---    eyes
NC
you make me wanna die

[I'll never be good enough, you make me wanna die, and everything you love, will burn up 
in the light, and everytime i look inside your eyes, you make me wanna die]

[Pre-verse]
e|------------------------------------------------------------------------|
B|------------------------------------------------------------------------|
G|------------------------------------------------------------------------|
D|-333333333333333333333333333-6-9-3-33333333333333333333333333-6-9-------|
A|-333333333333333333333333333-6-9-3-33333333333333333333333333-6-9-------|
D|-333333333333333333333333333-6-9-3-33333333333333333333333333-6-9-------|


[Verse 2]
e|------------------------------------------------------------|
B|------------------------------------------------------------|
G|-----------------88-8888-77-7777-66-6666-55-5555------------|
D|-33-3333-66-6666-88-8888-77-7777-66-6666-55-5555--10-8-6-5--|
A|-33-3333-66-6666-66-6666-55-5555-44-4444-33-3333--10-8-6-5--|
D|-33-3333-66-6666----------------------------------10-8-6-5--|

e|------------------------------------------------------------|
B|------------------------------------------------------------|
G|-----------------88-8888-77-7777-66-6666-55-5555--55555555--|
D|-33-3333-66-6666-88-8888-77-7777-66-6666-55-5555--55555555--|
A|-33-3333-66-6666-66-6666-55-5555-44-4444-33-3333--33333333--|
D|-33-3333-66-6666--------------------------------------------|

[Taste me, drink my soul, show me all the things that I shouldn't know, And there's a 
blue moon on the rise]

[prechorus]

e|---------------------------------------------------------------------|
B|-9--9----8-9-11-9--9----8-9-11-9--9----------------------------------|
G|--10-9-10--------10-9-10--------10-9---------------------------------|
D|---------------------------------------------------------------------|
A|---------------------------------------------------------------------|
D|---------------------------------------------------------------------|

[your eyes, your eyes, i can see in your eyes, your eyes, everything in your eyes, your eyes]

NC
you make me wanna die

[Chorus]
e|------------------------------------------------------------------------|
B|------------------------------------------------------------------------|
G|-------------------------------------------------55-5555-55-5555--------|
D|-33-3333-33-3333-66-6666-66-6666-88-8888-88-8888-55-5555-55-5555--------|
A|-33-3333-33-3333-66-6666-66-6666-88-8888-88-8888-33-3333-33-3333--------|
D|-33-3333-33-3333-66-6666-66-6666-88-8888-88-8888------------------------|

e|-------------------------------------------------------------------|
B|-------------------------------------------------------------------|
G|-66-6666-88-8888-1010-10101010-88-8888-----------------------------|
D|-66-6666-88-8888-1010-10101010-88-8888-88-8888-8-8-8-8--10-8-6-5---|
A|-44-4444-66-6666-8-8--8-8-8-8--66-6666-88-8888-8-8-8-8--10-8-6-5---|
D|---------------------------------------88-8888-8-8-8-8--10-8-6-5---|

[I'll never be good enough, You make me wanna die, and everything you love, will burn up 
in the light, and every time i look inside your eyes, (burning in the light)
NC
you make me wanna die]

[Bridge]
e|-------------------------------------------|
B|-------------------------------------------|
G|-------------------------------------------| x4
D|-3-33-333-6-66-666-1-11-111-8-88-888-------|
A|-3-33-333-6-66-666-1-11-111-8-88-888-------|
D|-3-33-333-6-66-666-1-11-111-8-88-888-------|

e|------------------------------------------|
B|------------------------------------------|
G|----------------------------555555555555--|
D|-33333333-66666666-88888888-555555555555--|
A|-33333333-66666666-88888888-333333333333--|
D|-33333333-66666666-88888888---------------|

[I'll die for you, my love, my love,
I'll lie for you, my love, my love, (you make me wanna die)
I'll steal for you, my love, my love, (you make me wanna die)
I'll die for you, my love, my love,
We'll burn up in the light]

[Chorus]
e|------------------------------------------|
B|------------------------------------------|
G|-66-6666-88-8888-1010-10101010-88-8888----| x3
D|-66-6666-88-8888-1010-10101010-88-8888----|
A|-44-4444-66-6666-8-8--8-8-8-8--66-6666----|
D|------------------------------------------|


e|----------------------------|
B|----------------------------|
G|----------------------------|
D|-88-8888-8888-10-8-6-5------|
A|-88-8888-8888-10-8-6-5------|
D|-88-8888-8888-10-8-6-5------|

[everytime i look inside your eyes, I'm burning in the light, I look inside your eyes, 
I'm burning in the light, I look inside your eyes]

NC
you make me wanna die (I stop here)

[Outro]
e|---------------------------------------------|
B|---------------------------------------------|
G|---------------------------------------------| (Repeat and fade(lol))
D|-33333333333333333333333333333--6--9--3------|
A|-33333333333333333333333333333--6--9--3------|
D|-33333333333333333333333333333--6--9--3------|
Tap to rate this tab
# A B C D E F G H I J K L M N O P Q R S T U V W X Y Z