Song name
# A B C D E F G H I J K L M N O P Q R S T U V W X Y Z

The Pretty Reckless - Goin Down tab

Tabbed by breadtruck
vegas_poker101@yahoo.co.uk

This is just a guideline of the various parts from Goin' Down that I could work out.
Feel free to add your own flare. The rhythm may be off.
The only other tab of this song was pretty wrong and even in the wrong tuning so I 
thought I'd share my version with UG to maybe help some people.

Intro Riff
eb|------------------------------|
Bb|------------------------------|
Gb|----9--7-9------9-9-7-9-7-9---|
Db|----9--7-9------9-9-7-9-7-9---|
Ab|----7--5/7------7-7-5/7-5/7---|
Eb|-0---------x0-0---------------|

Verse

eb|------------------------------------------------------------------------|
Bb|------------------------------------------------------------------------|
Gb|----9--7-9~-------------------------------------------------------------|
Db|----9--7-9~-------------------------------------------------------------|
Ab|----7--5/7~-------------------------------------------------------------|
Eb|-0----------------------------------------------------------------------|

eb|------------------------------------------------------------------------|
Bb|------------------------------------------------------------------------|
Gb|------------------------------------------------------------------------|
Db|--2-2-2-2-2-2-2-2-2-2-2-2-2-2-2-2-2-2-2-2-2-2-2-2-2-2-2-2-2-2-2-2-2-2---|
Ab|--2-2-2-2-2-2-2-2-2-2-2-2-2-2-2-2-2-2-2-2-2-2-2-2-2-2-2-2-2-2-2-2-2-2---|
Eb|--0-0-0-0-0-0-0-0-0-0-0-0-0-0-0-0-0-0-0-0-0-0-0-0-0-0-0-0-0-0-0-0-0-0---|
     . . . . . . . . . . . . . . .     . . . . . . . . . . . . . . .

eb|------------------------------------------------------------------------|
Bb|------------------------------------------------------------------------|
Gb|------------------------------------------------------------------------|
Db|--4-4-4-4-4-4-4-5-4-4-4-4-4-4-4-5-4-4-4-4-4-4-4-5-4-4-4-4-4-5-4-3-2-----|
Ab|--4-4-4-4-4-4-4-5-4-4-4-4-4-4-4-5-4-4-4-4-4-4-4-5-4-4-4-4-4-5-4-3-2-----|
Eb|--2-2-2-2-2-2-2-3-2-2-2-2-2-2-2-3-2-2-2-2-2-2-2-3-2-2-2-2-2-3-2-1-0-----|

eb|------------------------------------------------------------------------|
Bb|------------------------------------------------------------------------|
Gb|------------------------------------------------------------------------|
Db|--2-2-2-2-2-2-2-2-2-2-2-2-2-2-2-2-2-2-2-2-2-2-2-2-2-2-2-2-2-2-2-2-2-2---|
Ab|--2-2-2-2-2-2-2-2-2-2-2-2-2-2-2-2-2-2-2-2-2-2-2-2-2-2-2-2-2-2-2-2-2-2---|
Eb|--0-0-0-0-0-0-0-0-0-0-0-0-0-0-0-0-0-0-0-0-0-0-0-0-0-0-0-0-0-0-0-0-0-0---|
     . . . . . .     . . . . . .     . . . . . .     . . . . . . . . . .

Pre Chorus
eb|------------------------------------------------------|
Bb|------------------------------------------------------|
Gb|-5-----------7-7---------5----------------------------|
Db|-5----5-5----7-7----7----5----5-5----9999777755554444-|
Ab|-3----5-5----5-5----7----3----5-5----9999777755554444-|
Eb|------3-3-----------5---------3-3----7777555533332222-|
                                        ................

Chorus
eb|----------------------------------------|
Bb|----------------------------------------|
Gb|-----------7-77-777-----------5-55-555--|
Db|--2-2-222--7-77-777--7-7-777--5-55-555--| x3
Ab|--2-2-222--5-55-555--7-7-777--3-33-333--|
Eb|--0-0-000--5-55-555--5-5-555------------|

eb|------------------------------------------------|
Bb|------------------------------------------------|
Gb|-----------7-77-777-----------------------------|
Db|--2-2-222--7-77-777--1010101010101010-99999999--|
Ab|--2-2-222--5-55-555--1010101010101010-99999999--|
Eb|--0-0-000--5-55-555--8-8-8-8-8-8-8-8--77777777--|


Bridge
eb|------------------------------------------------------------------------|
Bb|------------------------------------------------------------------------|
Gb|---------7-9-10-9-7---------7-9-10-9-7-------5-7-5-----------5-7-5------|
Db|-10-7-10------------10-7-10------------9-6-9-------9-6-9-6-9-------9-6--| x3
Ab|------------------------------------------------------------------------|
Eb|------------------------------------------------------------------------|
    .  . .  . . .  . . .  . .  . . .  . . . . . . . . . . . . . . . . . .

eb|----------------------------------------------|
Bb|----------------------------------------------|
Gb|-------------------------8-8-8-8-9-8----------|
Db|-10-10-10-10-10-10-10-10-------------11-10-11-|
Ab|----------------------------------------------|
Eb|----------------------------------------------|
    .  .  .  .  .  .  .  .  . . . . . . .  .  .
Tap to rate this tab
# A B C D E F G H I J K L M N O P Q R S T U V W X Y Z