Song name
# A B C D E F G H I J K L M N O P Q R S T U V W X Y Z

The Pretty Reckless - Hit Me Like A Man tab

Song: Hit me like a man
Artist: The Pretty Reckless
Tuning: Standard

I know it isn't 100% correct, but it's something like this:

INTRO:

E -----------------|
B -----------------|
G -----------------|
D --------5---7----|  4x
A ----0---5---7----|
E ----0---3---5----|


E -----------------------------|----------------------------|
B -----------------------------|----------------------------|
G -----------------------------|----------------------------|
D -----------------------------|----------------------------|    2x
A -----7-5-7-5-----------------|--7-5-7-5-------3-2-1-0-----|
E --0----------7-6-5-5-0-3-5-0-|-0--------7-6-5-3-2-1-0-----|



VERSE:

E -----------------|      -------------|---------------|----------|
B -----------------|      -------------|---------------|----------|
G -----------------|      -----5---7---|---4---7---7---|----------|
D --------5---7----|  8x  -----5---7---|---4---7---7---|-----5--7-|
A ----0---5---7----|      -0---3---5---|---2---5---5---|--0--5--7-|
E ----0---3---5----|      -0-----------| --------------|--0--3--5-|


REFREIN:

E -----------------------------|------------------------|
B -----------------------------|------------------------|
G -----------------------------|------------------------|
D -----------------------------|------------------------|   few times!
A -----7-5-7-5-----------------|--7-5-7-5-------3-2-1-0-|
E --0----------7-6-5-5-0-3-5-0-|-0--------7-6-5-3-2-1-0-|

E -------------------------------|-------------------------|
B -------------------------------|-------------------------|
G -------------------------------|-------------------------|
D --7-5-7-5----------------------|---7-5-7-5---------------|
A -0--------7-6-5-5-0-3-5-0------|-0---------7-6-5-3-2-1-0-|
E -------------------------------|-------------------------|
Tap to rate this tab
# A B C D E F G H I J K L M N O P Q R S T U V W X Y Z