Song name
# A B C D E F G H I J K L M N O P Q R S T U V W X Y Z

The Pretty Reckless - Hit Me Like A Man tab

-------------------------------------------------------------------------------
                   HIT ME LIKE A MAN - The Pretty Reckless
-------------------------------------------------------------------------------
Tabbed by: karolinaa

I'm not sure about the mini solo on the last chorus so please correct me
if I'm wrong!!


Tuning: Half-step down

INTRO
eb|------------------|   |------------------| 
Bb|------------------|   |------------------| 
Gb|------------------|   |------------------| 
Db|---2--5--7--------|4x |----9-------------| 
Ab|---2--5--7--------|   |----7-------------| 
Eb|---0--3--5--------|   |------------------| 


eb|-----------------------------|----------------------------|
Bb|-----------------------------|----------------------------|
Gb|-----------------------------|----------------------------|
Db|-----------------------------|----------------------------|    
Ab|-----7-5-7-5-----------------|---7-5-7-5-------3-2-1------|
Eb|--0----------7-6-5-5-0-3-5---|-0---------7-6-5-3-2-1------|


eb|-----------------------------|----------------------------|
Bb|-----------------------------|----------------------------|
Gb|-----------------------------|----------------------------|
Db|-----------------------------|---------------7------------|    
Ab|-----7-5-7-5-----------------|---7-5-7-5-----7------------|
Eb|--0----------7-6-5-5-0-3-5---|-0---------7-6-5------------|



VERSE
eb|------------------|   |------------| |------------|   
Bb|------------------|   |------------| |------------|  
Gb|------------------|   |------------| |------------|
Db|---2--------------|5x |--2--5--7---| |--4--7--4---|
Ab|---2--5--7--------|   |--0--3--5---| |--2--5--2---|
Eb|---0--3--5--------|   |------------| |------------|

eb|------------------|
Bb|------------------|      
Gb|------------------|    
Db|---2--5--7--------|2x  
Ab|---2--5--7--------|    
Eb|---0--3--5--------|    



CHORUS
eb|-----------------------------|   |-----------------------------|
Bb|-----------------------------|   |-----------------------------|
Gb|-----------------------------|   |-----------------------------|
Db|--2--------------------------|3x |--2----------------5--7------| 
Ab|--2--7-5-7-5-----------------|   |--2--7-5-7-5-------5--7------|
Eb|--0----------7-6-5-5-0-3-5---|   |--0----------7p5h7-3--5------|


eb|-----------------------------|-----------------------------|
Bb|-----------------------------|-----------------------------|
Gb|-----------------------------|-----------------------------| 
Db|--2--------------------------|-----7-5-7-5-----------------|
Ab|--2--7-5-7-5-----------------|--0----------7-6-5-5-0-3-5---|
Eb|--0----------7-6-5-5-0-3-5---|-----------------------------|


eb|------------|-----------------------|
Bb|------------|-----------------------|
Gb|--4--7--4---|-----------------------|
Db|--4--7--4---|--2--5--7----2--5--7---|
Ab|--2--5--2---|--2--5--7----2--5--7---|
Eb|------------|--0--3--5----0--3--5---|


VERSE
eb|------------------|   |------------|  
Bb|------------------|   |------------|  
Gb|------------------|   |------------|
Db|---2--------------|2x |--2--5--7---| 
Ab|---2--5--7--------|   |--0--3--5---| 
Eb|---0--3--5--------|   |------------| 


eb|------------------|   |------------|----------------------|  
Bb|------------------|   |------------|----------------------|  
Gb|------------------|   |------------|--55555555--44444444--|
Db|---2--------------|2x |--2--5--7---|--55555555--44444444--| 
Ab|---2--5--7--------|   |--0--3--5---|--33333333--22222222--|
Eb|---0--3--5--------|   |------------|----------------------|



CHORUS
eb|-----------------------------|   |-----------------------------|
Bb|-----------------------------|   |-----------------------------|
Gb|-----------------------------|   |-----------------------------|
Db|--2--------------------------|3x |--2----------------5--7------| 
Ab|--2--7-5-7-5-----------------|   |--2--7-5-7-5-------5--7------|
Eb|--0----------7-6-5-5-0-3-5---|   |--0----------7p5h7-3--5------|


eb|-----------------------------|-----------------------------|
Bb|-----------------------------|-----------------------------|
Gb|-----------------------------|-----------------------------| 
Db|--2--------------------------|-----7-5-7-5-----------------|
Ab|--2--7-5-7-5-----------------|--0----------7-6-5-5-0-3-5---|
Eb|--0----------7-6-5-5-0-3-5---|-----------------------------|


eb|------------|-----------------------------|
Bb|------------|-----------------------------|
Gb|--4--7--4---|----------------------4--5~--|
Db|--4--7--4---|--2--5--7----2--5--7--4--5~--|
Ab|--2--5--2---|--2--5--7----2--5--7--2--3~--|
Eb|------------|--0--3--5----0--3--5---------|


BRIDGE
(Don't you run away, run away from me....)
eb|------------------------------------------|----------------------------------------|
Bb|------------------------------------------|----------------------------------------|
Gb|--5-5-5-5-------------7-7-7-7---9-9-7-7---|--5-5-5-5-------------4-4-4-4-4-4-4-4---|
Db|--5-5-5-5---5-5-5-5---7-7-7-7---9-9-7-7---|--5-5-5-5---5-5-5-5---4-4-4-4-4-4-4-4---|2x
Ab|--3-3-3-3---5-5-5-5---5-5-5-5---7-7-5-5---|--3-3-3-3---5-5-5-5---2-2-2-2-2-2-2-2---|
Eb|------------3-3-3-3-----------------------|------------3-3-3-3---------------------|



CHORUS
eb|------------------|   |---------------------------------------------------|
Bb|------------------|   |---------------------------------------------------| 
Gb|------9-----------|   |---------------------------------------------------|
Db|---2--9--2--2-----|3x |---7-5-7-7-5---------------------------------------|  
Ab|---2--7--2--2-----|   |---------------7-7-5-7-7-5-------------------------| 
Eb|---0-----0--0-----|   |---------------------------7-5-7-7-5-5-3-5-5-3-2---|

eb|-----------------------------|-----------------------------|
Bb|-----------------------------|-----------------------------|
Gb|-----------------------------|-----------------------------| 
Db|--2--------------------------|-----7-5-7-5-----------------|
Ab|--2--7-5-7-5-----------------|--0----------7-6-5-5-0-3-5---|
Eb|--0----------7-6-5-5-0-3-5---|-----------------------------|

eb|------------|------------------------------------------|
Bb|------------|------------------------------------------|
Gb|--4--7--4---|------------------------------------------|
Db|--4--7--4---|--2--5--7----2--5--7----2--5--7----2--5--7|
Ab|--2--5--2---|--2--5--7----2--5--7----2--5--7----2--5--7|
Eb|------------|--0--3--5----0--3--5----0--3--5----0--3--5|


ENDING
eb|---------------------------------------------------|
Gb|---------------------------------------------------|
Db|--9-------------------------------------------2----|
Ab|--7---7-5-7-5-------7-5-7-5-------7-5-7-5-----2----|
Eb|----0---------7-6-0---------7-6-0---------7-6-0----|

Tap to rate this tab
# A B C D E F G H I J K L M N O P Q R S T U V W X Y Z