Song name
# A B C D E F G H I J K L M N O P Q R S T U V W X Y Z

The Pretty Reckless - Follow Me Down tab

FOLLOW ME DOWN
THE PRETTY RECKLESS

Tabbed By T

Any corrections or complaints to wasssup@hotmail.co.uk, my junk folder
is starting to get lonely
Tuning: Eb (eb Bb Gb Db Ab Eb)
Dont trust the rhythms ive got down, theyre most likely innaccurate.
All tabs of phrases, no timings, etc. etc.

INTRO

gtr 1
e----------------------------------------------------------------|
B----------------------------------------------------------------|
G----------------------------------------------------------------|
D----------------------------------------------------------------|
A--------------------------------------------------------7-5-8-7-|
E-0-00-0-6h7p6p0-3-0-0000-12h13p12p0-6-0-00-0-6h7p6p0-3--5-3-6-5-|

e------------------------------------------------------------------|
B------------------------------------------------------------------|
G------------------------------------------------------------------|
D------------------------------------------------------------------|
A--------------------------------------------------------2-77-2-88-|
E-0-00-0-6h7p6p0-3-0-0000-12h13p12p0-6-0-00-0-6h7p6p0-3--0-55-0-66-|
pm                                                       .    .

gtr 2
e-------------------------------------------------------------|
B-------------------------------------------------------------|
G-------------------------9h10p9p0----------------------------|
D--------8h9p8p0-5-----------------8-------8h9p8p0-5--7-5-8-7-|
A-------------------------------------------------------------|
E-0-00-0-----------0-0000------------0-00-0-------------------|
pm                     ..
e-----------------------------------------------------------|
B-----------------------------------------------------------|
G-------------------------9h10p9p0--------------------------|
D--------8h9p8p0-5-----------------8-------8h9p8p0-5---7--8-|
A-----------------------------------------------------------|
E-0-00-0-----------0-0000------------0-00-0-----------0--0--|
pm                     ..                             .  .

VERSE
e-----------------------------------------------|
B-----------------------------------------------|
G-----------------------------------------------|
D-----------------------------------------------|
A--------7/------7-----7/-------7/------7-5-8-7-|
E-0-0000---0-0000--000----0-0000---0000-5-3-6-5-|
pm. .... . . ..... ...    . .....  ....

e---------------------------------------------|
B---------------------------------------------|
G---------------------------------------------|
D---------------------------------------------|
A--------7/------7-----7/-------7/-------7--8-|
E-0-0000---0-0000--000----0-0000---0000-05-06-|
pm. .... . . ..... ... .  . .....  .... .  .

e-----------------------------------------------|
B-----------------------------------------------|
G-----------------------------------------------|
D-----------------------------------------------|
A--------7/------7-----7/-------7/------7-5-8-7-|
E-0-0000---0-0000--000----0-0000---0000-5-3-6-7-|
pm  .... . . ..... ...    . ....   ....   

e---------------------------------------------------|
B---------------------------------------------------|
G---------------------------------------------------|
D---------------------------------------10-11-12-13-|
A--------7/------7-----7/-------7/------------------|
E-0-0000---0-0000--000----0-0000---0000-12-12-12-12-|
pm  .... . . ..... ... .  . .....  .... 

the lead in the middle goes like this, think the effect is flange:
e----------------22-21-|
B----------------------|
G----------------------|
D-///19----17----------|
A-------18-------------|
E----------------------|

PRECHORUS
e---------------------------------------|
B---------------------------------------|
G---------------------------------------|
D-7-7-7-77-7-77-7-77-7-7-7-77-7-77-7-77-|
A---------------------------------------|
E-5-5-5-55-6-66-3-33-5-5-5-55-6-66-8-88-|

e---------------------------------------|
B---------------------------------------|
G---------------------------------------|
D-7-7-7-77-7-77-7-77-7-7-7-77-7-77-7-77-|
A---------------------------------------|
E-5-5-5-55-6-66-3-33-5-5-5-55-6-66-3-33-|

CHORUS
e----------------------------------------------------------------0-|
B----------------------------------------------------------------0-|
G----------------------------------------------------------------0-|
D---------------------------------------------------2-2-1-1-02---2-|
A-2-2-2-2-2-2--3-5-2-2-2-2-2-2--5-3-2-2-2-2-2-2-2-2-3-3-2-2-02-2-2-|
E-0-0-0-0-0-0-61-3-0-0-0-0-0-0-63-1-0-0-0-0-0-0-0-0-0-0-0-0--0-0-0-|
pm. . . . . . .. . . . . . . . .. . . . . . . . . . . . . . .. .

e---------------------------------------|
B---------------------------------------|
G---------------------------------------|
D-8/-7-77-2-22-2-22-5-55-7-77-2-22-2-22-|
A-8/-7-77-2-22-2-22-5-55-7-77-2-22-2-22-|
E-6/-5-55-0-00-0-00-3-33-5-55-0-00-0-00-|

e------------------------------------------------------------|
B------------------------------------------------------------|
G-------------------5---7---------------5---4----------------|
D-8/-7-77-2-22-2-22-5---7---2-22--------5---4---2-22---------|
A-8/-7-77-2-22-2-22-3---5---2-22-/77777-3---2---2-22-/777777-|
E-6/-5-55-0-00-0-00---------0-00----------------0-00---------|

RIFF
gtr 1
e----------------------------------------------------------------|
B----------------------------------------------------------------|
G----------------------------------------------------------------|
D----------------------------------------------------------------|
A--------------------------------------------------------7-5-8-7-|
E-0-00-0-6h7p6p0-3-0-0000-12h13p12p0-6-0-00-0-6h7p6p0-3--5-3-6-5-|

gtr 2
e-------------------------------------------------------------|
B-------------------------------------------------------------|
G-------------------------9h10p9p0----------------------------|
D--------8h9p8p0-5-----------------8-------8h9p8p0-5--7-5-8-7-|
A-------------------------------------------------------------|
E-0-00-0-----------0-0000------------0-00-0-------------------|
pm                     ..

VERSE
e-----------------------------------------------|
B-----------------------------------------------|
G-----------------------------------------------|
D-----------------------------------------------|
A--------7/------7-----7/-------7/------7-5-8-7-|
E-0-0000---0-0000--000----0-0000---0000-5-3-6-5-|
pm. .... . . ..... ...    . .....  ....

e---------------------------------------------|
B---------------------------------------------|
G---------------------------------------------|
D---------------------------------------------|
A--------7/------7-----7/-------7/-------7--8-|
E-0-0000---0-0000--000----0-0000---0000-05-06-|
pm. .... . . ..... ... .  . .....  .... .  .

e-----------------------------------------------|
B-----------------------------------------------|
G-----------------------------------------------|
D-----------------------------------------------|
A--------7/------7-----7/-------7/------7-5-8-7-|
E-0-0000---0-0000--000----0-0000---0000-5-3-6-7-|
pm  .... . . ..... ...    . ....   ....   

e---------------------------------------------------|
B---------------------------------------------------|
G---------------------------------------------------|
D---------------------------------------10-11-12-13-|
A--------7/------7-----7/-------7/------------------|
E-0-0000---0-0000--000----0-0000---0000-12-12-12-12-|
pm  .... . . ..... ... .  . .....  .... 

The feedback in the background of the 2nd line is an E, the closest
I could get to it was the 24th fret of the high E. The sliding bit
in the next line is just a 15th fret B string note with a long delay

PRECHORUS
e---------------------------------------|
B---------------------------------------|
G---------------------------------------|
D-7-7-7-77-7-77-7-77-7-7-7-77-7-77-7-77-|
A---------------------------------------|
E-5-5-5-55-6-66-3-33-5-5-5-55-6-66-8-88-|

CHORUS
e----------------------------------------------------------------0-|
B----------------------------------------------------------------0-|
G----------------------------------------------------------------0-|
D---------------------------------------------------2-2-1-1-02---2-|
A-2-2-2-2-2-2--3-5-2-2-2-2-2-2--5-3-2-2-2-2-2-2-2-2-3-3-2-2-02-2-2-|
E-0-0-0-0-0-0-61-3-0-0-0-0-0-0-63-1-0-0-0-0-0-0-0-0-0-0-0-0--0-0-0-|
pm. . . . . . .. . . . . . . . .. . . . . . . . . . . . . . .. .

e---------------------------------------|
B---------------------------------------|
G---------------------------------------|
D-8/-7-77-2-22-2-22-5-55-7-77-2-22-2-22-|
A-8/-7-77-2-22-2-22-5-55-7-77-2-22-2-22-|
E-6/-5-55-0-00-0-00-3-33-5-55-0-00-0-00-|

e------------------------------------------------------------|
B------------------------------------------------------------|
G-------------------5---7---------------5---4----------------|
D-8/-7-77-2-22-2-22-5---7---2-22--------5---4---2-22---------|
A-8/-7-77-2-22-2-22-3---5---2-22-/77777-3---2---2-22-/777777-|
E-6/-5-55-0-00-0-00---------0-00----------------0-00---------|

POST CHORUS
e------------------------------------------------------------------|
B------------------------------------------------------------------|
G------------------------------------------------------------------|
D----------------------------------------------------------------2-|
A--------------------------------------------------------7-5-8-7-2-|
E-0-00-0-6h7p6p0-3-0-0000-12h13p12p0-6-0-00-0-6h7p6p0-3--5-3-6-5-0-|

gtr 2
e---------------------------------------------------------------|
B---------------------------------------------------------------|
G-------------------------9h10p9p0------------------------------|
D--------8h9p8p0-5-----------------8-------8h9p8p0-5--7-5-8-7-2-|
A-------------------------------------------------------------2-|
E-0-00-0-----------0-0000------------0-00-0-------------------0-|

BRIDGE
gtr 1 with some trippy effects
e-12---|----------|------------12-|
B---12-|-14----14-|---------12----|
G------|----12----|-X4-then-------|
D------|----------|---------------|
A------|----------|---------------|
E------|----------|---------------|

gtr2 with some autowah
e---|---|-----------|---|---------|---------|
B---|---|-----------|---|-------0-|-------0-|
G---|---|-----------|---|-----2---|-----2---|
D---|---|-X4-then---|---|---1-----|---1-----|
A---|---|-----------|---|-2-------|-2-------|
E-0-|-5-|---------5-|-0-|---------|---------|

and now, for poops and giggles, the piano line:
e-12-14-15-14-12-14-15-17-15-14-17-|
B----------------------------------|
G----------------------------------|
D----------------------------------|
A----------------------------------|
E----------------------------------|

e-20-19-17-17-19-20-19-19-19-17-15---14-15-14--14-15-14-14-15-14-15-17-|
B----------------------------------------------------------------------|
G----------------------------------------------------------------------|
D----------------------------------------------------------------------|
A----------------------------------------------------------------------|
E----------------------------------------------------------------------|

CHORUS
e----------------------------------------------------------------0-|
B----------------------------------------------------------------0-|
G----------------------------------------------------------------0-|
D---------------------------------------------------2-2-1-1-02---2-|
A-2-2-2-2-2-2--3-5-2-2-2-2-2-2--5-3-2-2-2-2-2-2-2-2-3-3-2-2-02-2-2-|
E-0-0-0-0-0-0-61-3-0-0-0-0-0-0-63-1-0-0-0-0-0-0-0-0-0-0-0-0--0-0-0-|
pm. . . . . . .. . . . . . . . .. . . . . . . . . . . . . . .. .

e---------------------------------------|
B---------------------------------------|
G---------------------------------------|
D-8/-7-77-2-22-2-22-5-55-7-77-2-22-2-22-|
A-8/-7-77-2-22-2-22-5-55-7-77-2-22-2-22-|
E-6/-5-55-0-00-0-00-3-33-5-55-0-00-0-00-|

e------------------------------------------------------------|
B------------------------------------------------------------|
G-------------------5---7---------------5---4----------------|
D-8/-7-77-2-22-2-22-5---7---2-22--------5---4---2-22---------|
A-8/-7-77-2-22-2-22-3---5---2-22-/77777-3---2---2-22-/777777-|
E-6/-5-55-0-00-0-00---------0-00----------------0-00---------|

gtr1
e------------------------------------------------------------------|
B------------------------------------------------------------------|
G------------------------------------------------------------------|
D----------------------------------------------------------------2-|
A--------------------------------------------------------7-5-8-7-2-|
E-0-00-0-6h7p6p0-3-0-0000-12h13p12p0-6-0-00-0-6h7p6p0-3--5-3-6-5-0-|

gtr 2
e---------------------------------------------------------------|
B---------------------------------------------------------------|
G-------------------------9h10p9p0------------------------------|
D--------8h9p8p0-5-----------------8-------8h9p8p0-5--7-5-8-7-2-|
A-------------------------------------------------------------2-|
E-0-00-0-----------0-0000------------0-00-0-------------------0-|
Tap to rate this tab
# A B C D E F G H I J K L M N O P Q R S T U V W X Y Z