Song name
# A B C D E F G H I J K L M N O P Q R S T U V W X Y Z

The Pretty Reckless - Going To Hell tab

Intro (repeat it 2x)
|---------------------------------------|
|---------------------------------------|
|---------------------------------------|
|--0x---------5----0x-------------------|
|--0x-2p--5h6h7-7--0x-2p--5h7p5--3v~-5v~|
|--0x--------------0x-------------------|
   (2x)           (2x)                      
|---------------------------------------|
|---------------------------------------|
|---------------------------------------|
|--0x---------5----0x------------5-/-7--|
|--0x-2p--5h6h7-7--0x-2p--5h7p5--3-/-5--|
|--0x--------------0x-------------------|
   (2x)           (2x)                      

Riff (repeat it 2x)
                        3x
|-----------------------|-----------------------------|
|-----------------------|-----------------------------|
|-----------------------|-----------------------------|
|--6x-6--6x-6--6x-6--88-|-6x-6--6x-6--6x-6---11/12----|
|--7x-7--7x-7--7x-7--99-|-7x-7--7x-7--7x-7---12/13----|
|--5x-5--5x-5--5x-5--55-|-5x-5--5x-5--5x-5---10/11----|
  (2x)  (2x)  (2x)       (2x)  (2x)  (2x) 
       
 Outro
|-------------------------------|
|-------------------------------|
|-------------------------------|
|--(12)--2~--5~-----------------|
|--(13)--2~--5~-----------------|
|--(11)--2~--5~-----------------|

            
Chorus (repeat it 2x)
|---------------------------------------|
|---------------------------------------|
|---------------------------------------|
|--0x---------5----0x-------------------|
|--0x-2p--5h6h7-7--0x-2p--5h7p5--3v~-5v~|
|--0x--------------0x-------------------|
  (2x)            (2x)                      
|---------------------------------------|
|---------------------------------------|
|---------------------------------------|
|--0x---------5-----55~~----------------|
|--0x-2p--5h6h7-7---77~~----------------|
|--0x---------------55~~----------------|
  (2x)                                                 


h - hammer on
/ - slide
~ - hold 
p - pull off
x - mute note

I'm working on the rest of the music.
It's been hard cause it's the first time I do this, so if anything is wrong, just say \m/
Tap to rate this tab
 
# A B C D E F G H I J K L M N O P Q R S T U V W X Y Z