Song name
# A B C D E F G H I J K L M N O P Q R S T U V W X Y Z

The Pretty Reckless - Heaven Knows tab

-----------------------------------------------------------------------------
                   Heaven Knows - The Pretty Reckless
-----------------------------------------------------------------------------

Album : Going to Hell ( 2014 )

Tabbed by: Ninoss123
E-mail: romain.marmier@yahoo.fr

Tuning: STANDARD
Scale for Solo improvising : A minor pentatonic

A nice song of the new album of The Pretty Reckless reminding me 
We Will Rock You and Another Brick in The Wall. 

INTRO

e|------------------------------------------------------------------|
B|------------( play this riff the whole intro )--------------------|
G|------------------------------------------------------------------|
D|------------------------------------------------5/7--7-7-7--7/5---|
A|--5/7--7-7-7--7/5----You can also use-->--------5/7--7-7-7--7/5---|
E|--3/5--5-5-5--5/3----full power chords->--------3/5--5-5-5--5/3---|
         . .                                           . .


CHORUS :

At 1:20 :
I've had better days, man

e|--2------|                             e|--------|
B|--3------| If you are to slow to       B|--------|
G|--2-x12--|  to switch to the verse     G|--7-----| 
D|--0------|   play this, it would be    D|--7-x12-| 
A|---------|    easier :                 A|--5-----|
E|---------|                             E|--------| 

VERSE :

e|-------------------|
B|-------------------|
G|-------------------|
D|-------------------| x4
A|--5/7--7-7-7--7/5--|
E|--3/5--5-5-5--5/3--|
         . .

CHORUS :

e|--2------|                             e|--------|
B|--3------| If you are to slow to       B|--------|
G|--2-x12--|  to switch to the verse     G|--7-----| 
D|--0------|   play this, it would be    D|--7-x12-| 
A|---------|    easier :                 A|--5-----|
E|---------|                             E|--------| 

VERSE :

e|-------------------|
B|-------------------|
G|-------------------|
D|-------------------|
A|--5/7--7-7-7--7/5--|
E|--3/5--5-5-5--5/3--|
         . .

At 2:03, don't forget the guitar stops

CHORUS 2 :

At 2:06
Oh Lord, heaven knows   We belong way down below

e|----------------------------------------------|
B|----------------------------------------------|
G|----------------------7-----------------------|
D|--7-----------5-------7-x2----------7---------|
A|--7-x2--------5-x2----5-------------7-x2------|
E|--5-----------3---------------------5---------|

Oh Lord, tell us so  We belong way down below

e|----------------------------------------------|
B|----------------------------------------------|
G|--------7---------------7--5------------------|            -7-
D|--7--5--7--7------------7--5--7---------------| Here, play -7- or just go back to the verse
A|--7--5--5--7------------5--3--7---------------|            -5-    ( there is two guitar )
E|--5--3-----5------------------5---------------|

VERSE :

e|-------------------|
B|-------------------|
G|-------------------|
D|-------------------|
A|--5/7--7-7-7--7/5--|
E|--3/5--5-5-5--5/3--|
         .

CHORUS :

e|--2------|                             e|--------|
B|--3------| If you are to slow to       B|--------|
G|--2-x12--|  to switch to the verse     G|--7-----| 
D|--0------|   play this, it would be    D|--7-x12-| 
A|---------|    easier :                 A|--5-----|
E|---------|                             E|--------| 

VERSE :

e|-------------------|
B|-------------------|
G|-------------------|
D|-------------------| x4
A|--5/7--7-7-7--7/5--|
E|--3/5--5-5-5--5/3--|
         . .

CHORUS :

e|--2------|                             e|--------|
B|--3------| If you are to slow to       B|--------|
G|--2-x12--|  to switch to the verse     G|--7-----| 
D|--0------|   play this, it would be    D|--7-x12-| 
A|---------|    easier :                 A|--5-----|
E|---------|                             E|--------| 

VERSE :

e|-------------------|
B|-------------------|
G|-------------------|
D|-------------------|
A|--5/7--7-7-7--7/5--|
E|--3/5--5-5-5--5/3--|
         . .

At 2:46, guitar stops again

CHORUS 3 :

Oh Lord, heaven knows   We belong way down below

e|----------------------------------------------|
B|----------------------------------------------|
G|----------------------7-----------------------|
D|--7-----------5-------7-x2----------7---------|
A|--7-x2--------5-x2----5-------------7-x2------|
E|--5-----------3---------------------5---------|

Oh Lord, heaven knows   We belong way down below
e|----------------------------------------------|
B|----------------------------------------------|
G|--------7---------------7--5------------------|
D|--7--5--7--7------------7--5--7---------------|
A|--7--5--5--7------------5--3--7---------------|
E|--5--3-----5------------------5---------------|

Oh Lord, heaven knows   We belong way down below
e|----------------------------------------------|
B|----------------------------------------------|
G|--------7---------------7--5------------------|
D|--7--5--7--7------------7--5--7---------------|
A|--7--5--5--7------------5--3--7---------------|
E|--5--3-----5------------------5---------------|

Oh Lord, tell us so  We belong way down below

e|-------------------------------------------------|
B|-------------------------------------------------|
G|--------7---------------7--5---------------------|           
D|--7--5--7--7------------7--5--7~-----------------| 
A|--7--5--5--7------------5--3--7~-Hold to the end-|            
E|--5--3-----5------------------5~-----------------|


RECAP :

INTRO

CHORUS
VERSE
CHORUS
VERSE

CHORUS 2

VERSE
CHORUS
VERSE
CHORUS
VERSE

CHORUS 3

. = palm mute

Hope you'll enjoy , thanks for the corrections.
Plz rate :)
Tap to rate this tab
# A B C D E F G H I J K L M N O P Q R S T U V W X Y Z