The Pretty Reckless - Fucked Up World tab

-------------------------------------------------------------------------------
                             Fucked Up World by The Pretty Reckless
-------------------------------------------------------------------------------
Tabbed by: P4pp3r/Simon

Tuning: Half-Step Down

The timing IS NOT perfect, but I bet that you guys will figure it out! :)
Comment if you have any questions or if you want to correct something.

VERSE 1: NO GUITAR


PRE-CHORUS: "Oh I can see it..."

eb|-------------------------------------------------------|
Bb|-------------------------------------------------------|
Gb|--9-999999--7-777777--6-666666--5--4-------------------|
Db|--9-999999--7-777777--6-666666--5--4-------------------| PLAY THIS TWO TIMES
Ab|--7-777777--5-555555--4-444444--3--2-------------------|
Eb|-------------------------------------------------------|
PM     ......    ......    ......


CHORUS: "It's a fucked up world..."

eb|----------------------------------------------|
Bb|----------------------------------------------|
Gb|---9----7--------------9999-7777--------------|
Db|---9----7----7----2----9999-7777-7777-2222----| PLAY THIS TWO TIMES
Ab|---7----5----7----2----7777-5555-7777-2222----|
Eb|-------------5----0--------------5555-0000----|

The end of the FIRST chorus
eb|---------------------------------|
Bb|---------------------------------|
Gb|-------------------------9\------|
Db|--55555555-77777777------x-------|
Ab|--55555555-77777777------7\------|
Eb|--33333333-55555555--------------|


The end of the TWO OTHER choruses
eb|------------------------------------------------------------|
Bb|------------------------------------------------------------|
Gb|--------------------55555555-77777777----9--9--9--9--9--9---|
Db|--55555555-77777777-55555555-77777777-------------------x---|
Ab|--55555555-77777777-33333333-55555555--7--7--7--7--7----7---|
Eb|--33333333-55555555-----------------------------------------|

VERSE 2: Some dead notes and Eb octaves

PRE-CHORUS: Two times

CHORUS: Play the "Two other choruses" part instead at the end of the chorus

BRIDGE

eb|-----7---------------------|
Bb|-------7-------------------|
Gb|---------7-----------------|
Db|-----------7---------------| HARMONICS!!!!!!!!!!!!!
Ab|-------------7-------------|
Eb|---------------7-----------|


eb|------------------------------------|
Bb|------------------------------------|
Gb|------------------------------------|
Db|------------------------------------| REPEAT THIS A COUPLE OF TIMES
Ab|-------/7--5~--7\----/7--5~--7\-----|
Eb|---00-------------00----------------|

eb|------------------------|
Bb|------------------------|
Gb|------------------------|
Db|------------------------| THE END OF THE BRIDGE
Ab|-------/7--5b-----------|
Eb|---00-------------------|

VERSE 3

eb|-----------------------------------|
Bb|-8-8-8-8-8-8-----------------------|
Gb|-9-9-9-9-9-9-----------------------|
Db|-9-9-9-9-9-9-----------------------| Something like this, feel the rhythm.
Ab|-7-7-7-7-7-7-----------------------|
Eb|-----------------------------------|

CHORUS: And "Two other choruses" here too, but don't play the octaves!!!!!!

OUTRO

eb|------------------------------------|
Bb|------------------------------------|
Gb|------------------------------------|
Db|------------------------------------| REPEAT THIS A COUPLE OF TIMES
Ab|-------/7--5~--7\----/7--5~--7\-----|
Eb|---00-------------00----------------|
Tap to rate this tab
 
# A B C D E F G H I J K L M N O P Q R S T U V W X Y Z