Song name
# A B C D E F G H I J K L M N O P Q R S T U V W X Y Z

The Pretty Things - Cold Stone tab

Help us improve GuitareTab! Take a short survey!
-------------------------------------------------------------------------------
COLD STONE - The Pretty Things 
-------------------------------------------------------------------------------
Tabbed by: Brett McKersey
Email:rictusgrin666@lycos.com

Tuning: standard

Intro
e|-----------------|-----------------|-----------------|---------------------|
B|-----------------|-----------------|-----------------|---------------------|
G|-----------------|-----------------|-----------------|---------------------|
D|-----------------|-----------------|-----------------|---------------------|
A|-7---7---5/7-----|-7---7---5/7-----|-7---7---5/7-----|-7---7---------3-----|
E|-8p5-5---3/5-----|-8p5-5---3/5-----|-8p5-5---3/5-----|-8p5-5---0h3h5---0h3-|

Verse
e|------------------|------------------|------------------|------------------|
B|------------------|------------------|------------------|------------------|
G|------------------|------------------|------------------|------------------|
D|------------------|------------------|------------------|------------------|
A|-7---7---5/7------|-7---7---5/7------|-7---7---5/7------|-7---7---5/7------|
E|-8p5-5---3/5--xxxx|-8p5-5---3/5--xxxx|-8p5-5---3/5--xxxx|-8p5-5---3/5--xxxx|


e|-------------------|-------------------|------------------|------------------|
B|-------------------|-------------------|------------------|------------------|
G|-------------------|-------------------|------------------|------------------|
D|--9---9---7/9------|--9---9---7/9------|------------------|------------------|
A|-10p7-7---5/7--xxxx|-10p7-7---5/7--xxxx|-7---7---5/7------|-7---7---5/7------|
E|-------------------|-------------------|-8p5-5---3/5--xxxx|-8p5-5---3/5--xxxx|


Bridge

Guitar 1
e|------------------|------------------|------------------|------------------|
B|-3----------------|-3----------------|-3----------------|-3----------------|
G|-2------------2---|-2------------2---|-2------------2---|-2------------2---|
D|-0--2-2-----2-2---|-0--2-2-----2-2---|-0--2-2-----2-2---|-0--2-2-----2-2---|
A|----3-0-2-2-3-0---|----3-0-2-2-3-0---|----3-0-2-2-3-0---|----3-0-2-2-3-0---|
E|--------0-3-------|--------0-3-------|--------0-3-------|--------0-3-------|

Guitar 2
e|------------------|------------------|------------------|------------------|
B|------------------|------------------|------------------|------------------|
G|-7~-5-------5-----|-7--5-------5-----|-7--5-------5-----|7--5-------5------|
D|------7---5---7~--|------7---5---7---|------7---5---7---|------7---5---7---|
A|--------7---------|--------7---------|--------7---------|--------7---------|
E|------------------|------------------|------------------|------------------|

Fill 1
e|-------------|
B|-------------|
G|-------------|
D|-5/777-7/999-|
A|-3/555-5/777-|
E|-------------|


Chorus
e|------------------|-10--------------|------------------|-10--------------|
B|---------8-8------|-10--------------|---------8-8------|-10--------------|
G|-9-9-----7-7------|-9---------------|-9-9-----7-7------|-9---------------|
D|-9-9-----5-5------|-7---------------|-9-9-----5-5------|-7---------------|
A|-7-7--------------|-----------------|-7-7--------------|-----------------|
E|------------------|-----------------|------------------|-----------------|

 
e|------------------|-10--------------|------------------|
B|---------8-8------|-10--------------|---------8-8------|
G|-9-9-----7-7------|-9---------------|-9-9-----7-7------|
D|-9-9-----5-5------|-7---------------|-9-9-----5-5------|
A|-7-7--------------|-----------------|-7-7--------------|
E|------------------|-----------------|------------------|





Rhythm under solo

e|-------------------|-------------------|-------------------|-------------------|
B|-------------------|-------------------|-------------------|-------------------|
G|-------------------|-------------------|-------------------|-------------------|
D|-10-------11-------|-------------------|-10-------11-------|-------------------|
A|-10-------11-------|-7---7---5/7-------|-10-------11-------|-7---7---5/7-------|
E|-8--------9--------|-8p5-5---3/5-------|-8--------9--------|-8p5-5---3/5-------|


e|-------------------|-------------------|-----------------|-------------------|
B|-------------------|-------------------|-----------------|-------------------|
G|-------------------|-------------------|-----------------|-------------------|
D|-10-------11-------|-10-------11-------|-11--------------|-99999999-99999999-|
A|-10-------11-------|-10-------11-------|-11--------------|-77777777-77777777-|
E|-8---------9-------|-8---------9-------|-9---------------|-------------------|


Fill 2
e|---------------------------------|
B|---------------------------------|
G|-9-9-------------------4-5-4-5-7-|
D|-9-9-----5-2-3-5-7-5-7-----------|
A|-7-7-----------------------------|
E|---------------------------------|


Ending

Guitar 1
e|------------------|------------------|------------------|------------------|
B|-3----------------|-3----------------|-3----------------|-3----------------|
G|-2------------2---|-2------------2---|-2------------2---|-2------------2---|
D|-0--2-2---0-2-2---|-0--2-2---0-2-2---|-0--2-2---0-2-2---|-0--2-2---0-2-2---|
A|----3-0-2---3-0---|----3-0-2---3-0---|----3-0-2---3-0---|----3-0-2---3-0---|
E|--------0-3-------|--------0-3-------|--------0-3-------|--------0-3-------|

Guitar 2
e|------------------|------------------|------------------|-10-8--------8------|
B|------------------|------------------|------------------|------10---8---10---|
G|-7~-5-------5-----|-7--5-------5-----|-7--5-------5-----|---------9----------|
D|------7---5---7~--|------7---5---7---|------7---5---7---|--------------------|
A|--------7---------|--------7---------|--------7---------|--------------------|
E|------------------|------------------|------------------|--------------------|


Intro
Verse
Bridge
Fill 1
Verse
Bridge 
Chorus
Solo
Intro 
Verse
Bridge
Chorus (substitute Fill 2 for last bar)
Ending


| /  slide up
| \  slide down
| h  hammer-on
| p  pull-off
| ~  vibrato
| +  harmonic
| x  Mute note

check out the comprehensive fansite for this great band
www.prettythings.net
===============================================================================

Related for Cold Stone tab