Song name
# A B C D E F G H I J K L M N O P Q R S T U V W X Y Z

The Pretty Things - Balloon Burning tab

Help us improve GuitareTab! Take a short survey!
BALLOON BURNING - The Pretty Things

intro:
-------------------------------------------------------------------------|
-8--6--5-6-5-3--5-3--1-3-1-----------------------------------------------|
-----------------------------2~~~~~--------------------------------------|
-------------------------------------------------------------------------|
-------------------------------------------------------------------------|
-------------------------------------------------------------------------|

verse:

-------------------------------------------------|
-6/8-6-----6/8-6-----6/8-6-----6/8-6------6/8-6--|repeat-over-lyrics
-------777-------777-------777-------777---------|
-------------------------------------------------|
-------------------------------------------------|
-------------------------------------------------|

**repeat intro and verse**

then:
-------------------------------------------------------------------------|
-8--6--5-6-5-3--5-3--1-3-1-0-1-0---0-------------------------------------|
---------------------------------2---2-0-2-0---0-------------------------|
---------------------------------------------3---3-2-3-2-0---------------|
-------------------------------------------------------------------------|
-------------------------------------------------------------------------|

'this balloon..burning' part:

-------3-------------3--------------5-------------5-----------------------|
-1-3-5---5-3---1-3-5---5-3----3-5-6---6-5---3-5-6---6-5-----repeat-twice--|
--------------------------------------------------------------------------|
--------------------------------------------------------------------------|
--------------------------------------------------------------------------|
--------------------------------------------------------------------------|

GUITAR SOLO:

--------------------------------------------------------------------------|
-3///15~-----------------------------10-10--10-8--10b-10-10b~-------------|
----------------------7-9--7-9-7h9r7--------------------------------------|
--------------7--9-10-----------------------------------------------------|
--------------------------------------------------------------------------|
--------------------------------------------------------------------------|

-----------------------------------|
-3////10--3////9--3////8--3////10--|randomly-slide-up-and-down-guitar-neck
-----------------------------------|
-----------------------------------|
-----------------------------------|
-----------------------------------|

------------------20-19-17/19-17-15-17--12/10--10/12-10--8-10-10-10-10-11--|b
-3////17--17-15v-----------------------------------------------------------|
---------------------------------------------------------------------------|
---------------------------------------------------------------------------|
---------------------------------------------------------------------------|
---------------------------------------------------------------------------|


-11b-----11b-11b-11b-11b-11b-11b-11b-11b-11b-10--10-10-10-10/-------------|
-----10b------------------------------------------------------------------|
-----10b------------------------------------------------------------------|
--------------------------------------------------------------------------|
--------------------------------------------------------------------------|
--------------------------------------------------------------------------|

-17-17-17-17-17-----------------------------------------------------------|
-15-15-15-15-15-----tremolo-pick about 15x--------------------------------|
--------------------------------------------------------------------------|
--------------------------------------------------------------------------|
--------------------------------------------------------------------------|
--------------------------------------------------------------------------|

**repeat verse**


'this balloon..burning' part again:

-------3-------------3--------------5-------------5-----------------------|
-1-3-5---5-3---1-3-5---5-3----3-5-6---6-5---3-5-6---6-5-----repeat-twice--|
--------------------------------------------------------------------------|
--------------------------------------------------------------------------|
--------------------------------------------------------------------------|
--------------------------------------------------------------------------|

-------5-------------3-------7-5-3-5-3-2--7-------------------------------|
-3-5-6---6-5---1-3-5---5-3----------------12------------------------------|
---------------------------------------------------------end-song---------|
--------------------------------------------------------------------------|
--------------------------------------------------------------------------|
--------------------------------------------------------------------------|

i feel its accurate, hope you enjoy!

thanks,,blake brown
sydbrown1970@yahoo.com

*BALLOON BURNING*

New York -
Grey and Sorrow there to meet her.
Night sky hangs
Around to greet her
She throws down
Lifeline of kisses.
Anchored to the ground.
Balloon descending.

Then I see balloon is burning,
Turning round burning.

This balloon, burning.

Fragments of my life
Falling
Sky of tire
All consuming.

Then I see balloon is burning.
Turning round burning.

This balloon, burning.
Related for Balloon Burning tab