Song name
# A B C D E F G H I J K L M N O P Q R S T U V W X Y Z

The Pretty Things - In The Square tab

In The Square - 1970 (Parachute)

riff one

e--------12--------12--------------------|
b---15--------15--------15---------------|
g-14--14----14--14----14--14-------------|
d----------------------------------------|
a----------------------------------------|
e----------------------------------------|

riff two

e--------12--------14--------------------|
b---15--------15-------------------------|
g-14--14----14--14-----------------------|
d----------------------------------------|
a----------------------------------------|
e----------------------------------------|

thats basically it.
thanks, blake.
Tap to rate this tab
# A B C D E F G H I J K L M N O P Q R S T U V W X Y Z