Guitaretab - guitar tabs
Song name
# A B C D E F G H I J K L M N O P Q R S T U V W X Y Z

The Pride Of Oklahoma - Boomer Sooner tab

#----------------------------------PLEASE NOTE-----------------------------#
This file is the author's own work and represents their interpretation of  the song. You
only use this file for private study, scholarship, or research.
#--------------------------------------------------------------------------#


				Boomer Sooner
			  (Arranged for Solo Guitar)

Arranged and transcribed by:
Israel Jacob Poire


Questions/Comments
Email: jakepoire@yahoo.com


Instructions:
The song is originally played in B flat, but I arranged the song to be played using open
strings, which would start the song in the key of A in standard tuning.  If you wish to
the song in B flat, simply place a capo on the first fret and play the piece
 If you'll notice, my bass lines are simply alternating between the fifth and sixth
while I play the Boomer Sooner melody up and down the fretboard.  There's absolutely no
hand fingering going on with the bass line which allow the player (you) to focus your
hand only on the melody, which is what makes the song recognizable.  This is a very easy 
to play, but if you have any questions, feel free to email me.  Have fun with this
and good luck!  Boomer Sooner!


Check out some of my other arrangements at:
www.youtube.com/aimforcentermass
----------------------------------------------------------------------------

Boomer Sooner (University of Oklahoma)
2/4 time - Capo first fret

|-------0---9-------7-9-5---0-------2-0-0---4-------2-0-0---5------|
|------------------------------------------------------------------|
|--6-7-------------------------------------------------------------|
|------------------------------------------------------------------|
|-------0-------0-------0-------0-------0-------0-------0-------0--|
|-----------0-------0-------0-------0-------0-------0-------0------|

[ Tab from: http://www.guitaretab.com/t/the-pride-of-oklahoma/89280.html ]
|-------0---9-------7-9-5---0-------2-0-0---4-------2-0-5--5///----|
|----------------------------------------------------------2///----|
|--6-7-----------------------------------------------------2///----|
|----------------------------------------------------------2///----|
|-------0-------0-------0-------0-------0-------0-------0--0///----|
|-----------0-------0-------0-------0-------0-------0--------------|


|-------0---9-------7-9-5---0-------2-0-0---4-------2-0-0---5------|
|------------------------------------------------------------------|
|--6-7-------------------------------------------------------------|
|------------------------------------------------------------------|
|-------0-------0-------0-------0-------0-------0-------0-------0--|
|-----------0-------0-------0-------0-------0-------0-------0------|


|-------0---9-------7-9-5---0-------2-0-0---4-------2-0-5--5///----|
|----------------------------------------------------------2///----|
|--6-7-----------------------------------------------------2///----|
|----------------------------------------------------------2///----|
|-------0-------0-------0-------0-------0-------0-------0--0///----|
|-----------0-------0-------0-------0-------0-------0--------------|


|---0--0--5--5--2---0--0--5--5--2--0--0--5----5----5--7--9--7--5---|
|-------------------------------------------7----7-----------------|
|------------------------------------------------------------------|
|------------------------------------------------------------------|
|---------0---------------0--------------0---------------0-----0---|
|------------------------------------------------------------------|


|---5-5-5-5-2-0---5-5-5-5-2-0---5----5--7--9---12---------9--7--5--|
|----------------------------------7-------------------------------|
|------------------------------------------------------------------|
|------------------------------------------------------------------|
|---0-------------0-------------0----------------------------0--0--|
|---------------------------------------------------------0--------|


Boomer Sooner!