Song name
# A B C D E F G H I J K L M N O P Q R S T U V W X Y Z

The Priscillas - All My Friends Are Zombies tab

Here's the band link"
Right, you can hear this song at 'http://www.myspace.com/thepriscillas', as they are 
fairly unheard of. This song is in standard tuning, with simple powerchord riffs...

---

E|---------------------------------------------------------------------|
B|---------------------------------------------------------------------|
G|--------------------------------10-10-10-10-10-10-9-9-9-9-9-9-9-9----|
D|--7-7-X-7-7-X-7-7-X-7-7-7-7-----10-10-10-10-10-10-9-9-9-9-9-9-9-9----|
A|--7-7-X-7-7-X-7-7-X-7-7-7-7-----8--8--8--8--8--8--7-7-7-7-7-7-7-7----|
E|--5-5-X-5-5-X-5-5-X-5-5-5-5------------------------------------------|

E|---------------------------------------------------------------------|
B|---------------------------------------------------------------------|
G|----------------------------10-10-10-10-10-10-12-12-12-12-12-12-12-12|
D|-7-7-X-7-7-X-7-7-X-7-7-7-7--10-10-10-10-10-10-12-12-12-12-12-12-12-12|
A|-7-7-X-7-7-X-7-7-X-7-7-7-7--8--8--8--8--8--8--10-10-10-10-10-10-10-10|
E|-5-5-X-5-5-X-5-5-X-5-5-5-5-------------------------------------------|

Play this twice.

---

E|---------------------------------------------------------------------|
B|---------------------------------------------------------------------|
G|------------------7-7-7-7-7-7-7-7------------------------------------|
D|-7-7-7-7-7-7-7-7--7-7-7-7-7-7-7-7--9-9-9-9-9-9-9--8-8-8-8-8-8-8------|
A|-7-7-7-7-7-7-7-7--5-5-5-5-5-5-5-5--9-9-9-9-9-9-9--8-8-8-8-8-8-8------|
E|-5-5-5-5-5-5-5-5-------------------7-7-7-7-7-7-7--6-6-6-6-6-6-6------|
This riff is palm muted throughout.

---

During the song, the two riffs interchange after every 8 bars or so.

This happens until the end riff kicks in.

E|---------------------------------------------------------------------|
B|---------------------------------------------------------------------|
G|---------------------------------------------------------------------|
D|--7-7-7-7-7-7-7-7--5-5-5-5-5-5-5--3-3-3-3-3-3-3---7-7-7-7-7-7-7-7----|
A|--7-7-7-7-7-7-7-7--5-5-5-5-5-5-5--3-3-3-3-3-3-3---7-7-7-7-7-7-7-7----|
E|--5-5-5-5-5-5-5-5--3-3-3-3-3-3-3--1-1-1-1-1-1-1---5-5-5-5-5-5-5-5----|

---

And then the big finale

E|--------------------------------------------------------------------||
B|--------------------------------------------------------------------||
G|--------------------------------------------------------------------||
D|--7---5---7---------------------------------------------------------||
A|--7---5---7---------------------------------------------------------||
E|--5---3---5---------------------------------------------------------||

---

I think this tab is pretty much correct, if not, it sounds enough like it ;D

Enjoy!
Tap to rate this tab
 
# A B C D E F G H I J K L M N O P Q R S T U V W X Y Z